Zeke - Telephat Boy Text Guitar Tab

Learn the song with the online tablature player
G|---------------------------------------|
D|---------------------------------------|
A|-1>-4>--1>-6-4>--1>-6-4>---------------|
E|-------------------------2>------------|

G|----------------------------|
D|----------------------------|
A|-1>-4-6>---1>---------------|
E|--------------4>------------|

G|-------------------------------------|
D|-------------------------------------|
A|-1>-4>--1>-6-4>--1>-6-4>-------------|
E|-------------------------2>----------|

G|------------------------------------|
D|------------------------------------|
A|-1>-4-6>---1>-4-6>------------------|
E|------------------------------------|

G|-----------------------------------------|
D|----2-4>----2-4>----2-4>-----------------|
A|-4>------4>------4>------4>-6>-----------|
E|-----------------------------------------|

End
G|------------------------------------------|
D|------------------------------------------|
A|-1>-4-6>--1>-4-6>--1>-4-6>--1>------------|
E|------------------------------------------|