Zolof The Rock And Roll Destroyer - This Was All A Bad Idea Text Guitar Tab

Learn the song with the online tablature player
       This Was All A Bad Idea - Zolof The Rock And Roll Destroyer

Intro
0.07)
G|--------------------|
D|--------------------|
A|--------------------|
E|5~------------------|

G|--------------------------------------------------------|
D|-------------------------5-55-5-0h4-44-2/7-77-7-77-7----|
A|5-55-5-44-4-2-22-2-22-2---------------------------------|
E|--------------------------------------------------------|

 Verse x2 "You maybe sad..."
G|--------------------------------------------------------|
D|-------------------------5-55-5-0h4-44-2/7-77-7-77-7----|
A|5-55-5-44-4-2-22-2-22-2---------------------------------|
E|--------------------------------------------------------|

 Chorus
G|----------------------------------|
D|------------------5-5--4-4--------|
A|5-5--4-4--2-2---------------------|
E|----------------------------5~----|

G|--------------------------------------------------------|
D|-------------------------5-55-5-0h4-44------------------|
A|5-55-5-44-4-2-22-2-22-2---------------------------------|
E|---------------------------------------5-55-5-5-55------|

 Verse x2 "You maybe wrong..."
G|--------------------------------------------------------|
D|-------------------------5-55-5-0h4-44-2/7-77-7-77-7----|
A|5-55-5-44-4-2-22-2-22-2---------------------------------|
E|--------------------------------------------------------|

 Chorus
G|----------------------------------|
D|------------------5-5--4-4--------|
A|5-5--4-4--2-2---------------------|
E|----------------------------5~----|

G|--------------------------------------------------------|
D|-------------------------5-55-5-0h4-44------------------|
A|5-55-5-44-4-2-22-2-22-2---------------------------------|
E|---------------------------------------5-55-5-5-55------|

Bridge x6
1.41)
G|----------77-----------------------|
D|-----4/7-----7-55--5--77-9-7-------|
A|55-5-------------------------------|
E|-----------------------------------|
 (2.06)
G|----------------------------------------------------------------------|
D|-----7777-5555-7777-------------------------------7777-5555-7777------|
A|5555------------------5555-------------------5555---------------------|
E|---------------------------5555-3333-5555-----------------------------|

 End off (2.34)
G|--------------------|
D|--------------------|
A|--------------------|
E|5~------------------|