38 Special - Hold on Loosely Text Bass Tab

Learn the song with the online tablature player
G|---------------------------------------------------------------|
D|---------------------------------------------------------------|
A|------7«---6«---5«---4«-------7.---4-2--------3-3-3-3-3-3-3-3--|
E|--7-5---------------------7-5----------3-0.--------------------|

G|-----------------------------------------------------------|
D|----------------------------------------------------5------|
A|--3-----3-3----3-----3---3---5-----5-5----5-----5-6---6-7--|
E|------3------3-----3---3---3-----5------5-----5------------|

G|----------------------------------------------------|
D|-----------------------------4-5-7------------------|
A|--7-----7-6---6«-0-1-2-5---5-------0---4-4--5-5--7--|
E|----5-7---------------------------------------------|

G|--------------------------------------------------|
D|--------------------------------------------------|
A|--7-----7-6---6«-0-1-2-5---5-4-2-0-----0-2-0------|
E|----5-7------------------------------2-------4-2--|

G|------------------------------------------------------|
D|------------------------------------------------------|
A|------0-2--2-2-2-2-2-2-2------------------------------|
E|--2-4--------------------2---2-3-4-5--5-5-5-5-5-5-5.--|

[pause]

G|------------------------------|
D|------------------------------|
A|--4-2--------3-3-3-3-3-3-3-3--|
E|------3-0.--------------------|

G|-----------------------------------------------------------|
D|----------------------------------------------------5------|
A|--3-----3-3----3-----3---3---5-----5-5----5-----5-6---6-7--|
E|------3------3-----3---3---3-----5------5-----5------------|

G|--------------------------------------------------|
D|--------------------------------------------------|
A|--7-----7-6---6«-0-1-2-5---5-4-2-0---4-4--5-5--7--|
E|----5-7-------------------------------------------|

G|-------------------------------------------------------|
D|-----------------------------4-5-7----5-4-5-4----------|
A|--7-----7-6---6«-0-1-2-5---5-------0----------5-4-0----|
E|----5-7---------------------------------------------2--|

G|-----------------------------------------|
D|-----------------------------------------|
A|------0-2--2-2-2-2-2---------------------|
E|--2-4----------------5»9«-2---2-3-4-5>---|

[pause]

G|------------------9-7>-------------------------|
D|--4-5-7>---5»7>----------6-7-9--9-9-9-9-9-9-9--|
A|-----------------------------------------------|
E|-----------------------------------------------|

G|----------------------------------------------------------------|
D|----------------------------------------------------------------|
A|--7.----7-6.----6-5.----5-4.--4-2---------7-6.----6-5.----5-4.--|
E|------5-------5-------5-----------3-0.--5-------5-------5-------|

G|---------------|
D|---------------|
A|--4-4--5-5--7--|
E|---------------|

G|----------------------------------------------------|
D|-----------------------------4-5-7------------------|
A|--7-----7-6---6«-0-1-2-5---5-------0---4-4--5-5--7--|
E|----5-7---------------------------------------------|

G|--------9-8---9-8-------------------------------------|
D|------------------9---------4-5-7----5-4-5-4----------|
A|--7-----------------9-7---5-------0----------5-4-0----|
E|----5-7--------------------------------------------2--|

G|--------------------------------------------------------|
D|--------------------------------------------------------|
A|------0-2--2-2-2-2-2---------------------------------7--|
E|--2-4----------------5»9«-2---2-3-4-5--5-5-5-5-5-5-5----|

G|----------------------------------------------------|
D|-----------------------------4-5-7------------------|
A|--7-----7-6---6«-0-1-2-5---5-------0---4-4--5-5--7--|
E|----5-7---------------------------------------------|

G|----------------------------------------|
D|----------------------------------------|
A|--7-----7-6---6«-0-1-2-5.---4.---4-5-7--|
E|----5-7---------------------------------|

G|--------------------------------------------------|
D|---------------------------4-4--5--7--------------|
A|--7-----7-6---6-0-1-2-5--5-------------0-4--5--7--|
E|----5-7-------------------------------------------| x2

G|--------------------7-6--------------------------------|
D|----------------5-5-----7-------4-5-7------------------|
A|--7-----7-6---6-----------7---5-------0---4-4--5-5--7--|
E|----5-7------------------------------------------------|

G|-----------------------------------7-5--------------|
D|----------------------------4-5-7------7-5---5-7----|
A|--7-----7-6---6-0-1-2-5---5----------------7-----0--|
E|----5-7---------------------------------------------|

G|--------------------7-6--------------------------------|
D|----------------5-5-----7-------4-5-7------------------|
A|--7-----7-6---6-----------7---5-------0---4-4--5-5--7--|
E|----5-7------------------------------------------------|

G|-------------------------------------7-5--------------|
D|--------7-6--------------------4-5-7-----7-5---5-7----|
A|----7-7-----7-6--6-0-1-2-5---5---------------7-----0--|
E|--5---------------------------------------------------|

G|--------------------7-6--------------------------------|
D|----------------5-5-----7-------4-5-7------------------|
A|--7-----7-6---6-----------7---5-------0---4-4--5-5--7--|
E|----5-7------------------------------------------------|

G|-----------------------------------7-5--------------|
D|----------------------------4-5-7------7-5---5-7----|
A|--7-----7-6---6-0-1-2-5---5----------------7-----0--|
E|----5-7---------------------------------------------|

G|--------------------7-6--------------------------------|
D|----------------5-5-----7-------4-5-7------------------|
A|--7-----7-6---6-----------7---5-------0---4-4--5-5--7--|
E|----5-7------------------------------------------------|

G|-------------------------------------7-5--------------|
D|--------7-6--------------------4-5-7-----7-5---5-7----|
A|----7-7-----7-6--6-0-1-2-5---5---------------7-----0--|
E|--5---------------------------------------------------|

G|--------------------7-6--------------------------------|
D|----------------5-5-----7-------4-5-7------------------|
A|--7-----7-6---6-----------7---5-------0---4-4--5-5--7--|
E|----5-7------------------------------------------------|

G|-----------------------------------7-5--------------|
D|----------------------------4-5-7------7-5---5-7----|
A|--7-----7-6---6-0-1-2-5---5----------------7-----0--|
E|----5-7---------------------------------------------|

Symbols

[«]= Slide Down
[.]= Cut Off
[»]= Slide Up
[>]= Let Ring