38 Special - Hold on Loosely Text Guitar Tab

Learn the song with the online tablature player
I'm pretty sure this is right. Didn't feel like doing the whole song. My first
tab, too, btw. Enjoy.

Key:
\ Slide Down
. Palm Mute

Intro

Gtr. 1     PM.  .  .  .  .     .   PM.  .  .  .  .
E|---------------------------------------------------|
B|---------------------------------------------------|
G|--------9-----------------9-----8------------------|
D|--9--7--9--9--9--9--9--9--9--9--9--9--9--9--9--9---|
A|--9--7--7--7--7--7--7--7--7--7--6--6--6--6--6--6---|
E|--7--5---------------------------------------------|

       .   PM.  .  .  .  .     .   PM.  .  .  .  .
E|---------------------------------------------------|
B|---------------------------------------------------|
G|--8-----7-----------------7-----6------------------|
D|--9--9--7--7--7--7--7--7--7--7--7--7--7--7--7--7---|
A|--6--6--5--5--5--5--5--5--5--5--4--4--4--4--4--4---|
E|---------------------------------------------------|

Intro Pt. 2:

Gtr. 1     PM.  .  .  .  . .   .   PM.  .  .  .  .
E|---------------------------------------------------|
B|---------------------------------------------------|
G|--------9-----------------9-----8------------------|
D|--9--7--9--9--9--9--9--9--9--9--9--9--9--9--9--9---|
A|--9--7--7--7--7--7--7--7--7--7--6--6--6--6--6--6---|
E|--7--5---------------------------------------------|

Gtr. 2
E|---------------------------------------------------|
B|---------------------------------------------------|
G|---------------------------------------------------|
D|--------9\\\--------------------8\\\---------------|
A|--------9\\\--------------------9\\\---------------|
E|--------7\\\--------------------6\\\---------------|

       .   PM.  .  .  .  .     .   PM.  .  .  .  .
E|---------------------------------------------------|
B|---------------------------------------------------|
G|--8-----7-----------------7-----6------------------|
D|--9--9--7--7--7--7--7--7--7--7--7--7--7--7--7--7---|
A|--6--6--5--5--5--5--5--5--5--5--4--4--4--4--4--4---|
E|---------------------------------------------------|

E|---------------------------------------------------|
B|---------------------------------------------------|
G|---------------------------------------------------|
D|--------7\\\--------------------6\\\---------------|
A|--------7\\\--------------------7\\\---------------|
E|--------5\\\--------------------4\\\---------------|

Verse

Gtr. 1     PM.  .  .  .  . .   .   PM.  .  .  .  .
E|---------------------------------------------------|
B|---------------------------------------------------|
G|--------9-----------------9-----8------------------|
D|--9--7--9--9--9--9--9--9--9--9--9--9--9--9--9--9---|
A|--9--7--7--7--7--7--7--7--7--7--6--6--6--6--6--6---|
E|--7--5---------------------------------------------|

       .   PM.  .  .  .  .     .   PM.  .  .  .  .
E|---------------------------------------------------|
B|---------------------------------------------------|
G|--8-----7-----------------7-----6------------------|
D|--9--9--7--7--7--7--7--7--7--7--7--7--7--7--7--7---|
A|--6--6--5--5--5--5--5--5--5--5--4--4--4--4--4--4---|
E|---------------------------------------------------|

Gtr. 2
E|---------------------------------------------------|
B|---------------------------------------------------|
G|---------------------------------------------------|
D|---------------------------------------------------|
A|-----------------------------------------------4---|
E|---------------------------------------------------|

           PM.  .  .  .  . .   .   PM.  .  .  .  .
E|---------------------------------------------------|
B|---------------------------------------------------|
G|--------9-----------------9-----8------------------|
D|--9--7--9--9--9--9--9--9--9--9--9--9--9--9--9--9---|
A|--9--7--7--7--7--7--7--7--7--7--6--6--6--6--6--6---|
E|--7--5---------------------------------------------|

E|-----------|
B|-----------|
G|-----------|
D|-----------|
A|--2--------|
E|-----4--0--|

       .   PM.  .  .  .  .     .   PM.  .
E|------------------------------------------------------------|
B|------------------------------------------------------------|
G|--8-----7-----------------7-----6--------6--6--6--6--6--6---|
D|--9--9--7--7--7--7--7--7--7--7--7--7--7--7--7--7--7--7--7---|
A|--6--6--5--5--5--5--5--5--5--5--4--4--4--4--4--4--4--4--4---|
E|------------------------------------------------------------|