A Day To Remember - Casablanca Sucked Anyways Text Bass Tab

Learn the song with the online tablature player
I'm pretty sure it's accurate

Intro
when piano starts)
G------------------------------------------------------------|
D------------------------------------------------------------|
A------------------------------------------------------------|4x
E-77x--77x--77--55x--33x--3----------------------------------|

Verse
G------------------------------------------------------------|
D------------------------------------------------------------|
A------------------------------------------------------------|
E-77x--77x--77--55x--33x--3----------------------------------|

G------------------------------------------------------------|
D------------------------------------------------------------|
A------------------------------------------------------------|
E-77x--77x--77--55x--33x-------------------------------------|

G------------------------------------------------------------|
D------------------------------------------------------------|
A------------------------------------------------------------|
E-77x--77x--77--55x--33x--3----------------------------------|

G------------------------------------------------------------|
D------------------------------------------------------------|
A------------------------------------------------------------|
E-77x--77x--77--55x--33x--3333x--33x-------------------------|

Chorus
G------------------------------------------------------------|
D------------------------------------------------------------|
A------------------------------------------------------------|
E-3-333-333-333-3-3-7-777-775-555-5--------------------------|

G------------------------------------------------------------|
D------------------------------------------------------------|
A------------------------------------------------------------|
E-3-333-333-333-3-3-7-777-77-10--10-10-10--10----------------|

G------------------------------------------------------------|
D------------------------------------------------------------|
A------------------------------------------------------------|
E-3-333-333-333-3-3-7-777-775-555-5--------------------------|

G------------------------------------------------------------|
D------------------------------------------------------------|
A------------------------------------------------------------|
E-3-333-333-333-3-3-7-777-77-10--10-10-10--10----------------|

Bridge
G---------------------|
D---------------------|
A---------------------|
E-3~~~~-3-3~~~--------|

Verse 2
G------------------------------------------------------------|
D------------------------------------------------------------|
A------------------------------------------------------------|4x
E-77x--77x--77--55x--33x--3----------------------------------|

Chorus
G------------------------------------------------------------|
D------------------------------------------------------------|
A------------------------------------------------------------|
E-3-333-333-333-3-3-7-777-775-555-5--------------------------|

G------------------------------------------------------------|
D------------------------------------------------------------|
A------------------------------------------------------------|
E-3-333-333-333-3-3-7-777-77-10--10-10-10--10----------------|

G------------------------------------------------------------|
D------------------------------------------------------------|
A------------------------------------------------------------|
E-3-333-333-333-3-3-7-777-775-555-5--------------------------|

G------------------------------------------------------------|
D------------------------------------------------------------|
A------------------------------------------------------------|
E-3-333-333-333-3-3-7-777-77-10--10-10-10--10----------------|

Bridge
G---------------------|
D---------------------|
A---------------------|
E-3~~~~-3-3~~~--------|

Breakdown
G----------------------------------|
D----------------------------------|
A----------------------------------|7x
E-000000x--00000-------------------|

G------------|
D------------|
A------------|
E-00000x-----|

Second part of breakdown
G--------------|
D--------------|
A--------------|
E-0(22x)-------|

Chorus
G------------------------------------------------------------|
D------------------------------------------------------------|
A------------------------------------------------------------|
E-3-333-333-333-3-3-7-777-775-555-5--------------------------|

G------------------------------------------------------------|
D------------------------------------------------------------|
A------------------------------------------------------------|
E-3-333-333-333-3-3-7-777-77-10--10-10-10--10----------------|

G------------------------------------------------------------|
D------------------------------------------------------------|
A------------------------------------------------------------|
E-3-333-333-333-3-3-7-777-775-555-5--------------------------|

G------------------------------------------------------------|
D------------------------------------------------------------|
A------------------------------------------------------------|
E-3-333-333-333-3-3-7-777-77-10--10-10-10--10---3------------|