A Day To Remember - Sticks And Bricks Text Guitar Tab

Learn the song with the online tablature player
Tabs for the song: Sticks & Bricks by A Day To Remember
Please rate and let me know if you have any corrections. Thank you.

Intro
Guitar 1:
C ||--------|-----------|
G ||--------|-----------|
D#||--------|-----------|
A#||---0~---|---1---1---|
F ||---0~---|---1---1---|
A#||---0~---|---1---1---|

Pre-Verse
Guitar 1/2:
C ||--------------------------------------------|
G ||--------------------------------------------|
D#||--------------------------------------------|
A#||--0h1p0~--0-------0~-h1p0-------------------|
F ||--0h1p0~--0-------0~-h1p0-------------------|
A#||--0h1p0~--0-0000--0~-h1p0---0-1-0---0-1-0---|
                ....            . . .   . . .

C ||---------------------------------------|
G ||---------------------------------------|
D#||---------------------------------------| x2
A#||--0h1p0~--0-------0~---4-4-4-4-1-1-1---|
F ||--0h1p0~--0-------0~---4-4-4-4-1-1-1---|
A#||--0h1p0~--0-0000--0~---4-4-4-4-1-1-1---|
                ....

Verse
Guitar 1/2:
C ||--------------------------------------|
G ||--------------------------------------|
D#||--------------3-----------------------|
A#||-000--000--0--3---0---1---0---1-4-1---|
F ||-000--000--0--1---0---1---0---1-4-1---|
A#||-000--000--0----0-0-0-1-0-0-0-1-4-1---|
     ...  ...  .    .   .   .   .

C ||-----------------------------------------|
G ||-----------------------------------------|
D#||--------------3--------------------------| x2
A#||-000--000--0--3---0----1--111---1/4-4-4--|
F ||-000--000--0--1---0----1--111---1/4-4-4--|
A#||-000--000--0----0-0-0--1--111---1/4-4-4--|
     ...  ...  .    .   .  .  ...

Pre-Chorus
Guitar 1:
C ||----------------------------------------|
G ||----------------------------------------|
D#||----------------------------------------| x2
A#||----------------------------------------|
F ||----------------------------------------|
A#||--0000---0000---0000---0000---00000000--|
      ....   ....   ....   ....   ........

C ||----------------------------------------|
G ||----------------------------------------|
D#||----------------------------------------|
A#||----------------------------------------|
F ||----------------------------------------|
A#||--4444---4444---4444---4444---44444444--|
      ....   ....   ....   ....   ........

C ||----------------------------------------|
G ||----------------------------------------|
D#||----------------------------------------|
A#||----------------------------------------|
F ||----------------------------------------|
A#||--1111---1111---1111---1111---11111111--|
      ....   ....   ....   ....   ........

Guitar 2:
C ||------|
G ||------|
D#||--14--| (repeats until end of pre-chorus)
A#||--x---|
F ||--12--|
A#||------|

C ||-----------|
G ||-----------|
D#||-----------|
A#||--|pick-|--|
F ||--|slide|--|
A#||-----------|

Chorus
Guitar 1/2:
C ||--------------------------------------------------------------------------|
G ||--------------------------------------------------------------------------|
D#||-7-7-7---------------------------10-10-10-10-10-10-10-10-9-9-9-9-9-9-9-9--|
A#||-7-7-7-7-7-7-8-8-8-8-8-8-8-8-8-8-10-10-10-10-10-10-10-10-9-9-9-9-9-9-9-9--|
F ||-5-5-5-7-7-7-8-8-8-8-8-8-8-8-8-8-8--8--8--8--8--8--8--8--7-7-7-7-7-7-7-7--|
A#||-------7-7-7-8-8-8-8-8-8-8-8-8-8------------------------------------------|

C ||------------------------------------------------------------------|
G ||------------------------------------------------------------------|
D#||-7-7-7------------------------------------------------------------|
A#||-7-7-7-7-7-7-8-8-8-8-8-8-8-8-8-8-3-3-3-3-3-3-3-3-2-2-2-2-2-2-2-2--|
F ||-5-5-5-7-7-7-8-8-8-8-8-8-8-8-8-8-3-3-3-3-3-3-3-3-2-2-2-2-2-2-2-2--|
A#||-------7-7-7-8-8-8-8-8-8-8-8-8-8-3-3-3-3-3-3-3-3-2-2-2-2-2-2-2-2--|

Pre-Verse
Guitar 1/2:
C ||--------------------------------------------|
G ||--------------------------------------------|
D#||--------------------------------------------|
A#||--0h1p0~--0-------0~-h1p0-------------------|
F ||--0h1p0~--0-------0~-h1p0-------------------|
A#||--0h1p0~--0-0000--0~-h1p0---0-1-0---0-1-0---|
                ....            . . .   . . .

C ||---------------------------------------|
G ||---------------------------------------|
D#||---------------------------------------| x2
A#||--0h1p0~--0-------0~---4-4-4-4-1-1-1---|
F ||--0h1p0~--0-------0~---4-4-4-4-1-1-1---|
A#||--0h1p0~--0-0000--0~---4-4-4-4-1-1-1---|
                ....

Verse
Guitar 1/2:
C ||--------------------------------------|
G ||--------------------------------------|
D#||--------------3-----------------------|
A#||-000--000--0--3---0---1---0---1-4-1---|
F ||-000--000--0--1---0---1---0---1-4-1---|
A#||-000--000--0----0-0-0-1-0-0-0-1-4-1---|
     ...  ...  .    .   .   .   .

C ||-----------------------------------------|
G ||-----------------------------------------|
D#||--------------3--------------------------|
A#||-000--000--0--3---0----1--111---1/4-4-4--|
F ||-000--000--0--1---0----1--111---1/4-4-4--|
A#||-000--000--0----0-0-0--1--111---1/4-4-4--|
     ...  ...  .    .   .  .  ...

C ||--------------------------------------|
G ||--------------------------------------|
D#||--------------3-----------------------|
A#||-000--000--0--3---0---1---0---1-4-1---|
F ||-000--000--0--1---0---1---0---1-4-1---|
A#||-000--000--0----0-0-0-1-0-0-0-1-4-1---|
     ...  ...  .    .   .   .   .

C ||-------------------------------------|
G ||-------------------------------------|
D#||--------------3----------------------|
A#||-000--000--0--3---0----1--111--------|
F ||-000--000--0--1---0----1--111--------|
A#||-000--000--0----0-0-0--1--111---5*b--|
     ...  ...  .    .   .  .  ...

Chorus
Guitar 1/2:
C ||--------------------------------------------------------------------------|
G ||--------------------------------------------------------------------------|
D#||-7-7-7---------------------------10-10-10-10-10-10-10-10-9-9-9-9-9-9-9-9--|
A#||-7-7-7-7-7-7-8-8-8-8-8-8-8-8-8-8-10-10-10-10-10-10-10-10-9-9-9-9-9-9-9-9--|
F ||-5-5-5-7-7-7-8-8-8-8-8-8-8-8-8-8-8--8--8--8--8--8--8--8--7-7-7-7-7-7-7-7--|
A#||-------7-7-7-8-8-8-8-8-8-8-8-8-8------------------------------------------|

C ||------------------------------------------------------------------|
G ||------------------------------------------------------------------|
D#||-7-7-7------------------------------------------------------------| x2
A#||-7-7-7-7-7-7-8-8-8-8-8-8-8-8-8-8-3-3-3-3-3-3-3-3-2-2-2-2-2-2-2-2--|
F ||-5-5-5-7-7-7-8-8-8-8-8-8-8-8-8-8-3-3-3-3-3-3-3-3-2-2-2-2-2-2-2-2--|
A#||-------7-7-7-8-8-8-8-8-8-8-8-8-8-3-3-3-3-3-3-3-3-2-2-2-2-2-2-2-2--|

Breakdown
Guitar 1:
C ||--------|
G ||--------|
D#||--------|
A#||---0~---|
F ||---0~---|
A#||---0~---|

Guitar 2:
C ||---------------------------------------------------|
G ||---------------------------------------------------|
D#||---------------------------------------------------|
A#||--1p0-------------1p0-------------1p0--------------|
F ||--1p0-------------1p0-------------1p0--------------|
A#||--1p0----00000000-1p0----00000000-1p0----00000000--|
             ........        ........        ........

Guitar 1/2:
C ||-------------------------|
G ||-------------------------|
D#||-------------------------|
A#||--6p5---1---1-4-1--1p0---|
F ||--6p5---1---1-4-1--1p0---|
A#||--6p5-0-1-0-1-4-1--1p0---|
          .   .

Guitar 1:
C ||---------------------------------------------|
G ||---------------------------------------------|
D#||---------------------------------------------|
A#||-----------1p0-------------1p0---------------|
F ||-----------1p0-------------1p0---------------|
A#||--00000000-1p0----00000000-1p0----00000000---|
      ........        ........        ........

Guitar 1/2:
C ||-----------|-----------|
G ||-----------|-----------|
D#||-----------|-----------|
A#||-----4-----|-----5-----|
F ||-----4-----|-----5-----|
A#||-----4-----|-----5-----|

C ||-------------------------------------------------------------------|
G ||-------------------------------------------------------------------|
D#||-------------------------------------------------------------------| x2
A#||--1p0-------------1p0-------------1p0-------------6p5---1---1-4-1--|
F ||--1p0-------------1p0-------------1p0-------------6p5---1---1-4-1--|
A#||--1p0----00000000-1p0----00000000-1p0----00000000-6p5-0-1-0-1-4-1--|
             ........        ........        ........     .   .

C ||-------------------------------------------------------------------|
G ||-------------------------------------------------------------------|
D#||-------------------------------------------------------------------|
A#||--1p0~------------1p0~------------1p0~------------6p5---1---1-4-1--|
F ||--1p0~------------1p0~------------1p0~------------6p5---1---1-4-1--|
A#||--1p0~---00000000-1p0~---00000000-1p0~---00000000-6p5-0-1-0-1-4-1--|
             ........        ........        ........     .   .

C ||-------------------------------------------------------------|
G ||-------------------------------------------------------------|
D#||-------------------------------------------------------------|
A#||--1p0-------------1p0-------------1p0-------------3-3-3-3-3--|
F ||--1p0-------------1p0-------------1p0-------------3-3-3-3-3--|
A#||--1p0----00000000-1p0----00000000-1p0----00000000-3-3-3-3-3--|
             ........        ........        ........

Chorus
Guitar 1/2:
C ||--------------------------------------------------------------------------|
G ||--------------------------------------------------------------------------|
D#||-7-7-7---------------------------10-10-10-10-10-10-10-10-9-9-9-9-9-9-9-9--|
A#||-7-7-7-7-7-7-8-8-8-8-8-8-8-8-8-8-10-10-10-10-10-10-10-10-9-9-9-9-9-9-9-9--|
F ||-5-5-5-7-7-7-8-8-8-8-8-8-8-8-8-8-8--8--8--8--8--8--8--8--7-7-7-7-7-7-7-7--|
A#||-------7-7-7-8-8-8-8-8-8-8-8-8-8------------------------------------------|

C ||------------------------------------------------------------------|
G ||------------------------------------------------------------------|
D#||-7-7-7------------------------------------------------------------| x2
A#||-7-7-7-7-7-7-8-8-8-8-8-8-8-8-8-8-3-3-3-3-3-3-3-3-2-2-2-2-2-2-2-2--|
F ||-5-5-5-7-7-7-8-8-8-8-8-8-8-8-8-8-3-3-3-3-3-3-3-3-2-2-2-2-2-2-2-2--|
A#||-------7-7-7-8-8-8-8-8-8-8-8-8-8-3-3-3-3-3-3-3-3-2-2-2-2-2-2-2-2--|

Outro
Guitar 1/2:
C ||--------------------------------------------|
G ||--------------------------------------------|
D#||--------------------------------------------|
A#||--0h1p0~--0-------0~-h1p0-------------------|
F ||--0h1p0~--0-------0~-h1p0-------------------|
A#||--0h1p0~--0-0000--0~-h1p0---0-1-0---0-1-0---|
                ....            . . .   . . .

C ||---------------------------------------|
G ||---------------------------------------|
D#||---------------------------------------|
A#||--0h1p0~--0-------0~---4-4-4-4-1-1-1---|
F ||--0h1p0~--0-------0~---4-4-4-4-1-1-1---|
A#||--0h1p0~--0-0000--0~---4-4-4-4-1-1-1---|
                ....

 h   - hammer-on
 p   - pull-off
 b   - bend
 r   - release bend
 *   - pinch harmonic
 '   - natural harmonic
 x   - mute note
 .   - palm mute
 /   - slide down
 \   - slide up