AC/DC - High Voltage Text Bass Tab

Learn the song with the online tablature player
I love this song, its by one of the greatest bands in history

HIGH VOLTAGE-AC/DC
Bassist-Mark Evans

the bass is distinct in this song so finding everything shouldnt be an issue

intro
G|--------------------------------------------------------------------||
D|--------------------------------------------------------------------||
A|----7--5------------------------------------------------------------||
E|----------5-5-5-----------------------------------------------------|| Do as many times as needed

Riff Into Verse
G|---------------------
D|---------------------
A|-- 0-2--4-4--0-2--4-4 x2
E|---------------------

Verse
G|----------------------------------------------||
D|----------------------------------------------||
A|--------7-7------7-7------5-5-----------------||
E|---7-9------7-9------7-9------7-9-0-1-2-2-2-3-|| Do as many times until pre chorus

pre chorus

G|----------------------------------------------------------------||
D|----------------------------------------------------------------||
A|----------------------------------------------------------------||
E|--0-1-2--0-1-2--------------------------------------------------||

chorus
G|----------------------------------------------------------------||
D|----------------------------------------------------------------||
A|--0-----0-0--3-3-5-5---0-3-4---------2--------------------------||
E|-------------------------------4-3-2----------------------------||

G|----------------------------------------------------------------||
D|----------------------------------------------------------------||
A|--3-3-3-3-3-------5-5-5-----------------------------------------||
E|------------3-3-3-----------------------------------------------||

Riff Into Verse
G|---------------------
D|---------------------
A|-- 0-2--4-4--0-2--4-4 x2
E|---------------------

Verse
G|----------------------------------------------||
D|----------------------------------------------||
A|--------7-7------7-7------5-5-----------------||
E|---7-9------7-9------7-9------7-9-0-1-2-2-2-3-||

pre chorus

G|----------------------------------------------------------------||
D|----------------------------------------------------------------||
A|----------------------------------------------------------------||
E|--0-1-2--0-1-2--------------------------------------------------||

chorus
G|----------------------------------------------------------------||
D|----------------------------------------------------------------||
A|--0-----0-0--3-3-5-5---0-3-4---------2--------------------------||
E|-------------------------------4-3-2----------------------------||

Bass During Solo
G|--------------------------------------------------------------------||
D|--------------------------------------------------------------------||
A|----7--5------------------------------------------------------------||
E|----------5-5-5-----------------------------------------------------||