AC/DC - Stick Around Text Guitar Tab

Learn the song with the online tablature player
                             Stick Around - AC/DC

Song off AC/DC's first album "High Voltage" from 1975

Intro

e|--------------------|
B|--------------------|
G|------------7--7----|
D|-7--7-------7--7----|      x8 (4th time solo below starts)
A|-7--7-------5--5----|
E|-5--5---------------|

Intro Solo

e|-8-(9)--8-(9)--5--5\--10-(11)--10-(11)--10-(11)--10-(11)--10-(11)--10-(11)|
B|--------------------------------------------------------------------------|
G|--------------------------------------------------------------------------|
D|--------------------------------------------------------------------------|
A|--------------------------------------------------------------------------|
E|--------------------------------------------------------------------------|

e|-10-(11)--8--10-(11)--8---------------------------------------------------|
B|------------------------10\--------10--10--7--------/10--10--10--7--------|
G|---------------------------------------------9\--------------------9--7--9|
D|--------------------------------------------------------------------------|
A|--------------------------------------------------------------------------|
E|--------------------------------------------------------------------------|

e|--------------------------------------------------------------------------|
B|--------------------------------------------------------------------------|
G|-7-9~~~\------------------------------------------------------------------|
D|--------------------------------------------------------------------------|
A|--------------------------------------------------------------------------|
E|--------------------------------------------------------------------------|

Verse

e|--------------------|
B|--------------------|
G|------------7--7----|
D|-7--7-------7--7----|    x4
A|-7--7-------5--5----|
E|-5--5---------------|

Pre-chorus

e|---------------|-----------------|
B|---------------|-----------------|
G|---------------| 7--7-----7------|
D|-7--7-----7----| 7--7-----7------|    x4
A|-7--7-----7----| 5--5--3--5--3---|
E|-5--5--3--5--3-|-----------------|

Chorus
1st Time:                  2nd Time:
e|---------------|------------------------------|-------|
B|---------------|------------------------------|-------|
G|-7-------------|------------------------------|-------|
D|-7-------5-----|--7--7--7--7-----7--7--7--7---|---7---|
A|-5-------5-----|--7--7--7--7-----7--7--7--7---|---7---|
E|---------3-----|--5--5--5--5--3--5--5--5--5---|---5---|

After chorus solo

e|-8-(9)--5\--11-(12)--11-(12)--12-------------------------15-(17)--15-(17)-|
B|---------------------------------14--12--14-------------------------------|
G|--------------------------------------------14\--11--9\-------------------|
D|--------------------------------------------------------------------------|
A|--------------------------------------------------------------------------|
E|--------------------------------------------------------------------------|

e|-17--15--17--15--17\--17--15-----15--17--15------15--17--15---------------|
B|-----------------------------17--------------17--------------17--15-------|
G|--------------------------------------------------------------------17----|
D|--------------------------------------------------------------------------|
A|--------------------------------------------------------------------------|
E|--------------------------------------------------------------------------|

Verse

Pre-Chorus

Chorus

Solo after second chorus:

e|-11-(12)--11-(12)--9--------------------------------10-(11)--10--7--------|
B|---------------------12--10~\--5/10--10--10--7--------------------10--7---|
G|----------------------------------------------9\------------------------9-|
D|--------------------------------------------------------------------------|
A|--------------------------------------------------------------------------|
E|--------------------------------------------------------------------------|

e|---------------------------------------10--10--9-(10)-5--8--5\----15~~~~~~|
B|------7--10--7----7-----------------10----------------------------18-(20)~|
G|-7-9-----------9----9--7--9\---5/7----------------------------------------|
D|--------------------------------------------------------------------------|
A|--------------------------------------------------------------------------|
E|--------------------------------------------------------------------------|

e|-11-(12)--8--10---------8\--10--12--9-----------15-(17)--15-(17)--15-(17)-|
B|---------------10--10-----------------12--10--12\-------------------------|
G|--------------------------------------------------------------------------|
D|--------------------------------------------------------------------------|
A|--------------------------------------------------------------------------|
E|-------------------- -----------------------------------------------------|

e|-17--15----------------------15--17--17--17~----|
B|---------17--15--17--15--17---------------------|
G|------------------------------------------------|
D|------------------------------------------------|
A|------------------------------------------------|
E|------------------------------------------------|

Verse

Pre-Chorus

Chorus

Ending

e|---------------------------------------------------------------------------|
B|---------------------------------------------------------------------------|
G|-0h2p0h2p0h2p0h2p0h3p0h3p0h3p0h3p0h4p0h4p0h4p0h4p0h5p0h5p0h5p0h5p0h6p0h6p0-|
D|---------------------------------------------------------------------------|
A|---------------------------------------------------------------------------|
E|---------------------------------------------------------------------------|

e|-------------------------------|
B|-------------------------------|
G|-h6p0h6p0h7p0h7p0h7p0h7p0------|
D|-------------------------------|
A|-------------------------------|
E|-------------------------------|

e|---------------------------------------------------------------------------|
B|---------------------------------------------------------------------------|
G|-7-------------------------------------------------------------------------|

| /  slide up
| \  slide down
| h  hammer-on
| p  pull-off
| ~  vibrato
| +  harmonic
| x  Mute note
| (1) - (21) bend to that note
| * Pick scratch