Accept - Amamos La Vida Text Bass Tab

Learn the song with the online tablature player
Amamos La Vida

                                                                          Accept
Bass

     W                   W                   W
G||-------------------|-------------------|-------------------|
D||-------------------|-------------------|-------------------|
A||-------------------|-------------------|-------------------|
E||-------------------|-------------------|-------------------|

  W                   W                   W                   W
-------------------|-------------------|-------------------|-------------------|
-------------------|-------------------|-------------------|-------------------|
-------------------|-------------------|-------------------|-------------------|
-------------------|-------------------|-------------------|-------------------|

  W                   H        H           H        H
-------------------|--------------------|--------------------|
-------------------|--------------------|--------------------|
-------------------|--2-----------------|--0--------2--------|
-------------------|-----------0--------|--------------------|

  H        H           Q.     E  H           H        H
--------------------|---------------------|--------------------|
--------------------|---------------------|--------------------|
--2--------5--------|--4------2--0--------|--2-----------------|
--------------------|---------------------|-----------0--------|

  H        H           H        H           W
--------------------|--------------------|-------------------|
--------------------|--------------------|-------------------|
--0--------2--------|--------------------|--2----------------|
--------------------|--3--------5--------|-------------------|

  H        H           H        Q.     E     H        H
--------------------|---------------------|--------------------|
--------------------|---------------------|--------------------|
--2--------5--------|--0--------2------0--|--2--------5--------|
--------------------|---------------------|--------------------|

  Q.     E  Q.     E     H        H           H        Q    E  E
----------------------|--------------------|----------------------|
----------------------|--------------------|----------------------|
--4------2--0------0--|--2-----------------|--0--------2----2-----|
----------------------|-----------0--------|-------------------0--|

  H        H           W                   H        H
--------------------|-------------------|--------------------|
--------------------|-------------------|--------------------|
--------------------|--2----------------|--2--------5--------|
--3--------5--------|-------------------|--------------------|

  H        Q.     E     H        H           Q.     E  Q.     E
---------------------|--------------------|----------------------|
---------------------|--------------------|----------------------|
--0--------2------0--|--2--------5--------|--4------2--0------0--|
---------------------|--------------------|----------------------|

  H        H           H        Q    E  E     H        H
--------------------|----------------------|--------------------|
--------------------|----------------------|--------------------|
--2-----------------|--0--------2----------|--------------------|
-----------0--------|----------------0--2--|--3--------5--------|

  Q    E   E  E  E  E  E     Q.     E  Q    E  E     Q.     E  Q.     E
--------------------------|-----------------------|----------------------|
--------------9-----------|-----------------------|----------------------|
--2----2S--9-----9--------|-----------------------|--2------2--0------0--|
--------------------0--2--|--3------3--2----2--0--|----------------------|

  Q.     E  Q.     E     H        H           H        H
----------------------|--------------------|--------------------|
----------------------|--------------------|--------------------|
-------------------0--|--2-----------------|--0--------2--------|
--3------3--5---------|-----------0--------|--------------------|

  H        H           Q.     E  H           H        H
--------------------|---------------------|--------------------|
--------------------|---------------------|--------------------|
--2--------5--------|--4------2--0--------|--2-----------------|
--------------------|---------------------|-----------0--------|

  H        H           H        H           E  E   E  E  S  S S S Q
--------------------|--------------------|-----------------------------|
--------------------|--------------------|-----2S--9-------------------|
--0--------2--------|--------------------|--2---------9--7-------------|
--------------------|--3--------5--------|-----------------10-9-7-L----|

  H        H           H        Q.     E     H        H
--------------------|---------------------|--------------------|
--------------------|---------------------|--------------------|
--2--------5--------|--0--------2------0--|--2--------5--------|
--------------------|---------------------|--------------------|

  Q.     E  Q.     E     H        H           H        E  E  E  E
----------------------|--------------------|-----------------------|
----------------------|--------------------|--------------4--------|
--4------2--0------0--|--2-----------------|--0--------2-----2--0--|
----------------------|-----------0--------|-----------------------|

  H        H           Q.     S  S E  E  E  E     Q.     E  Q.     E
--------------------|--------------------------|----------------------|
--------------------|--------------9-----------|----------------------|
--------------------|--2------2S-9----9--0-----|-------------------0--|
--3--------2--------|-----------------------0--|--3------3--5---------|

  E  E  E  E  E  E  E  E     B        B           B        E  E  E  E
--------------------------|--------------------|-----------------------|
--------------------------|--------------------|-----------------------|
--2--2--2--2--2--2--2--0--|--5--------0--------|-----------------------|
--------------------------|--------------------|--3--------3--3--3--3--|

  B        B           B        E  E  E  E     B        B
--------------------|-----------------------|--------------------|
--------------------|-----------------------|--------------------|
--5--------0--------|-----------------------|--5--------0--------|
--------------------|--3--------3--3--3--3--|--------------------|

  H        E  E  E  E     H.           E  E     W
-----------------------|---------------------|-------------------|
-----------------------|---------------------|-------------------|
-----------------------|------------------2--|--L----------------|
--3--------3--3--3--3--|--2------------L-----|-------------------|

  Q.     E  H           H        H           Q.     E  H
---------------------|--------------------|---------------------|
---------------------|--------------------|---------------------|
---------------------|--5-----------------|---------------------|
--0------2--3--------|-----------0--------|--0------2--3--------|

  Q.     E  Q    E  E     H        H           H        Q    E  E
-----------------------|--------------------|----------------------|
-----------------------|--------------------|----------------------|
--9------7--5----L--0--|-----------0--------|--5--------7----7-----|
-----------------------|--0-----------------|-------------------0--|

  Q.     E  Q.     E     E   E  E  E   S  S  E  E  E     Q.     E  H
----------------------|-------------------------------|---------------------|
----------------------|---------9-----11-12-11--------|---------------------|
-------------------0--|--2S--9-----9------------9--7--|---------------------|
--3------3--5---------|-------------------------------|--0------2--3--------|

  H        H           Q.     E  H           Q.     E  Q    E  E
--------------------|---------------------|-----------------------|
--------------------|---------------------|-----------------------|
--5-----------------|---------------------|--9------7--5----L--0--|
-----------0--------|--0------2--3--------|-----------------------|

  H        H           Q.     E  Q    E  E     Q.     E  Q.     E
--------------------|-----------------------|----------------------|
--------------------|-----------------------|----------------------|
-----------0--------|--5------0-------------|-------------------0--|
--0-----------------|------------0----0--2--|--3------3--5---------|

  E   E  E  E   S  S  E  E  E     H        H           H        H
-------------------------------|--------------------|--------------------|
---------9-----11-12-11--------|--------------------|--------------------|
--2S--9-----9------------9--7--|--------------------|--2--------5--------|
-------------------------------|--3--------5--------|--------------------|

  H        H           Q    E  H        E     W
--------------------|----------------------|-------------------|
--------------------|----------------------|-------------------|
--------------------|--2-------0--------L--|--L----------------|
--3--------5--------|----------------------|-------------------|

  W                   W                   W                   W
-------------------|-------------------|-------------------|-------------------|
-------------------|-------------------|-------------------|-------------------|
--L----------------|-------------------|-------------------|-------------------|
-------------------|-------------------|-------------------|-------------------|

  W                   H           W                   W
-------------------|-----------|-------------------|-------------------|
-------------------|-----------|-------------------|-------------------|
-------------------|-----------|-------------------|-------------------|
-------------------|-----------|-------------------|-------------------|

  H        H           H        Q    E  E     H        H
--------------------|----------------------|--------------------|
--------------------|----------------------|--------------------|
--2--------7--------|--0--------2----2--0--|--2--------5--------|
--------------------|----------------------|--------------------|

  Q.     E  H           H        H           H        E  E  E  E
---------------------|--------------------|-----------------------|
---------------------|--------------------|--------------4--------|
--4------2--0--------|--2-----------------|--0--------2-----0-----|
---------------------|-----------0--------|--------------------0--|

  B        B           B        B           B        B
--------------------|--------------------|--------------------|
--------------------|--------------------|--------------------|
--------------------|--2--------5--------|--0--------2--------|
--3--------5--------|--------------------|--------------------|

  H        H           Q.     E  H           H        H
--------------------|---------------------|--------------------|
--------------------|---------------------|--------------------|
--2--------5--------|--4------2--0--------|--2-----------------|
--------------------|---------------------|-----------0--------|

  H        H           H        Q    E  E     H        H
--------------------|----------------------|--------------------|
--------------------|----------------------|--------------------|
--0--------2--------|-------------------0--|--2--------5--------|
--------------------|--3--------5----2-----|--------------------|

  H        Q    E  E     H        H           Q.     E  H
----------------------|--------------------|---------------------|
----------------------|--------------------|---------------------|
--0--------2----2--0--|--2--------5--------|--4------2--0--------|
----------------------|--------------------|---------------------|

  B        B           B        B           B        B
--------------------|--------------------|--------------------|
--------------------|--------------------|--------------------|
--2-----------------|--0--------2--------|-----------0--------|
-----------0--------|--------------------|--3-----------------|

  W                   W
-------------------|-------------------||
-------------------|-------------------||
--2----------------|--L----------------||
-------------------|-------------------||

Duration Legend

W - whole
H - half
Q - quarter
E - 8th
S - 16th
T - 32nd
X - 64th
. - note dotted
|-n-|  - n-tuplets

L - tied note
x - dead note
g - grace note
(n) - ghost note
> - accentuded note
NH - natural harmonic
AH - artificial harmonic
TH - tapped harmonic
SH - semi harmonic
PH - pitch harmonic
h - hammer on
p - pull off
b - bend
br - bendRelease
pb - preBend
pbr - preBendRelease
brb - bendReleaseBend
\n/ - tremolo bar dip
\n - tremolo bar dive
-/n - tremolo bar Release up
/n\ - tremolo bar inverted dip
/n - tremolo bar return
-\n - tremolo bar Release down
S - shift slide
s - legato slide
/ -  slide into from below or out of upwards
\ -  slide into from above or out of downwards
~ - vibrato
W - wide vibrato
tr - trill
TP - tremolo picking
T - tapping
S - slap
P - pop
< - fade in
^ - brush up
v - brush down