Adam Lambert - Strut Text Guitar Tab

Learn the song with the online tablature player
                             STRUT - Adam Lambert

main riff (bass):
G|------------------------|
D|------------------------|
A|------------------------|
D|-7-7-10-10-0-0-2-3-2-3/-|

main riff 2 (bass):
G|------------------------|-------------------------|
D|------------------------|-------------------------|
A|------------------------|-------------------------|
D|-7-7-10-10-0-0-2-3-2-3/-|-2-7-7-10-10-0-0-2-3-2-3-|

main riff intro (guitar):
e|-----------|
B|-----------|
G|-----------|
D|-----------|
A|-----------|
E|-0-2-3-2-3-|

main riff (guitar):
e|-------------------------|
B|-------------------------|
G|-------------------------|
D|-2-7-7-10-10-0-0-2-3-2-3-|
A|-2-7-7-10-10-0-0-2-3-2-3-|
D|-2-7-7-10-10-0-0-2-3-2-3-|

chorus part 2:
e|-------------------------------------------------|
B|-10-10-10-10-10-10-10-10-10-10-10-10-10-10-10-10-|
G|-9--9--9--9--9--9--9--9--9--9--9--9--9--9--9--9--|
D|-------------------------------------------------|
A|-------------------------------------------------|
E|-------------------------------------------------|

post-chorus:
e|----------------------------------------|
B|----------------------------------------|
G|-4-5-4-5-4-5-4-5-4-5-4-5-4-5-4-5-4-5-/7-|
D|----------------------------------------|
A|----------------------------------------|
D|----------------------------------------|

Order:
Bass-------------------|--Guitar--------------------------------
main riff (bass) x2    |
main riff 2 (bass) x2  |
main riff (bass) x1    |
main riff 2 (bass) x1  |
main riff (bass) x1    |  main riff intro (guitar) x1
main riff (bass) x8    |  main riff (guitar) x6*, post-chorus x2
main riff 2 (bass) x2  |
main riff (bass) x4    |  main riff (guitar) x4
main riff (bass) x8    |  main riff (guitar) x6*, post-chorus x2

bridge
synth only)    |  bridge (synth only)
main riff (bass) x12   |  main riff (guitar) x12**

| /  slide up
| \  slide down
| h  hammer-on
| p  pull-off
| ~  vibrato
| +  harmonic
| x  Mute note