AFI - The Lost Souls Text Bass Tab

Learn the song with the online tablature player
the lost souls
by afi
chris

intro

|-------------------------------------------------------------------|
|--7-----7-----7-----7-----7---7---7-----7-----7-----7-----5-5-5-5--|
|----0-0---0-0---0-0---0-0---0---0---0-0---0-0---0-0---0-0----------|
|-------------------------------------------------------------------|

                                                  (16th notes)
|--------------------------------------------------------------------------|
|--7-----7-----7-----7-----7---7-------------------------------------------|
|----0-0---0-0---0-0---0-0---0-------------------/12-12-12-12-12-12-12-12--|
|--------------------------------3-5-5-5-5-5-5-5---------------------------|

verse
(strum in 16ths)
|--------------------------------------------------------|
|-----------------------------------------------7-5------|
|--5--8-----5--------------5--8-----5---------------8-7--|
|--------8-----5-6----5----------8-----5-6----5----------|

|-----------------------------------------|-----|
|-----------------------------------------|-----|
|--5--8-----5--------------5--8-----5-----|--5--|
|--------8-----5-6----5----------8-----5-6|-----|

chorus
(strum in 16ths)
|---------------------------------------------------------------|
|---------------------------------------------------------------|
|--5-------3--------------8------5-------3--------------8---10--|
|---------------3-5-6-------------------------3-5-6-------------|

|--7-----10----12----------------|
|--0-----0-----0-----------------|
|--------------------------------|
|-------------------/big slide\--|
)
|-----------------------------------------|-----|
|-----------------------------------------|-----|
|--5--8-----5--------------5--8-----5-----|--5--|
|--------8-----5-6----5----------8-----5-6|-----|

|--10-----10------9-----10----|
|--0------10------7-----8-----|
|-----------------------------|
|-----------------------------|

|---------------------------------------------|
|---------------------------------------------|
|--5-5-5-5-5-5-----------------------------5--|
|--------------1-1-1-1--3-5-5-5-5-5-6-6-6-6---|

|------------------------------------------------------|
|--7-7-7-7-7-7-7-7-7-----------------------------------|
|--5-5-5-5-5-5-8-8-8----------7-7-------------8-8-7-7--|
|---------------------5-5-5-5-----5-5-6-6-6-6----------|

|------------------------7-7-7-7-7-7--|
|--7-7-7-7-7-7-7-7-7--7--7-7-7-7-7-7--|
|--5-5-5-5-5-5-5-5-5--5--5-5-5-5-5-5--|
|-------------------------------------|

|--7----------7----------7------7----------7----------7-------|
|--0--0-0-0-0-0--0-0-0-0-0--0-0-0--0-0-0-0-0--0-0-0-0-0--0-0--|
|-------------------------------------------------------------|
|-------------------------------------------------------------|

|--10---------10---------10-----10---------10---------10------|
|--0--0-0-0-0-0--0-0-0-0-0--0-0-0--0-0-0-0-0--0-0-0-0-0--0-0--|
|-------------------------------------------------------------|
|-------------------------------------------------------------|

|-------------------|
|-------------------|
|--5---------3-4-5--|
|-------------------|