AFI - The Lost Souls Text Guitar Tab

Learn the song with the online tablature player
At first it looks hard but if you look at it while listening to the song you'll see it's
pretty simple.

Intro
(after bass part)
|------------------------------3-3-3-3-------------------7-7-7-7-7-7-7-7----------------|
|------------------------------3-3-3-3-------------------7-7-7-7-7-7-7-7----------------|
|-----------7----9----------7--4-4-4-4-----------7----9--8-8-8-8-8-8-8-8----------------|
|--7--10--9---10---7--10--9----5-5-5-5--7--10--9---10----9-9-9-9-9-9-9-9----------------|
|------------------------------5-5-5-5-------------------9-9-9-9-9-9-9-9----------------|
|------------------------------3-3-3-3-------------------7-7-7-7-7-7-7-7-7--(pick slide)--|

Verse
|--5-5-5-5--8--8--8--8---3-3-3-3--5-5-5-5--6-6-6-6-6-6-6-6--5-5-5-5-5-5-5-5--|
|--7-7-7-7--10-10-10-10--5-5-5-5--7-7-7-7--6-6-6-6-6-6-6-6--5-5-5-5-5-5-5-5--|
|--7-7-7-7--10-10-10-10--5-5-5-5--7-7-7-7--7-7-7-7-7-7-7-7--6-6-6-6-6-6-6-6--|   X3
|--7-7-7-7--10-10-10-10--5-5-5-5--7-7-7-7--8-8-8-8-8-8-8-8--7-7-7-7-7-7-7-7--|
|--5-5-5-5--8--8--8--8---3-3-3-3--5-5-5-5--8-8-8-8-8-8-8-8--7-7-7-7-7-7-7-7--|
|--5-5-5-5--8--8--8--8---3-3-3-3--5-5-5-5--6-6-6-6-6-6-6-6--5-5-5-5-5-5-5-5--|

|--5-5-5-5--8--8--8--8---3-3-3-3--5-5-5-5--6--*--3-3-3-3-3-3-3-3--|
|--7-7-7-7--10-10-10-10--5-5-5-5--7-7-7-7--6--S--5-5-5-5-5-5-5-5--|
|--7-7-7-7--10-10-10-10--5-5-5-5--7-7-7-7--7--T--5-5-5-5-5-5-5-5--|
|--7-7-7-7--10-10-10-10--5-5-5-5--7-7-7-7--8--O--5-5-5-5-5-5-5-5--|
|--5-5-5-5--8--8--8--8---3-3-3-3--5-5-5-5--8--P--3-3-3-3-3-3-3-3--|
|--5-5-5-5--8--8--8--8---3-3-3-3--5-5-5-5--6--*--3-3-3-3-3-3-3-3--|

Chorus
|--5-5-5-5-5-5-5-5--3-3-3-3-3-3--3--5--6-6-6-6-6-6-6-6--1-1-1-1-1-1-1-1--|
|--7-7-7-7-7-7-7-7--5-5-5-5-5-5--3--5--6-6-6-6-6-6-6-6--1-1-1-1-1-1-1-1--|
|--7-7-7-7-7-7-7-7--5-5-5-5-5-5--4--6--7-7-7-7-7-7-7-7--2-2-2-2-2-2-2-2--|
|--7-7-7-7-7-7-7-7--5-5-5-5-5-5--5--7--8-8-8-8-8-8-8-8--3-3-3-3-3-3-3-3--|
|--5-5-5-5-5-5-5-5--3-3-3-3-3-3--5--7--8-8-8-8-8-8-8-8--3-3-3-3-3-3-3-3--|
|--5-5-5-5-5-5-5-5--3-3-3-3-3-3--3--5--6-6-6-6-6-6-6-6--1-1-1-1-1-1-1-1--|

|--5-5-5-5-5-5-5-5--3-3-3-3-3-3--3--5--6-6-6-6-6-6-6-6--1-1-1-1--3-3-3-3--|
|--7-7-7-7-7-7-7-7--5-5-5-5-5-5--3--5--6-6-6-6-6-6-6-6--1-1-1-1--3-3-3-3--|
|--7-7-7-7-7-7-7-7--5-5-5-5-5-5--4--6--7-7-7-7-7-7-7-7--2-2-2-2--4-4-4-4--|
|--7-7-7-7-7-7-7-7--5-5-5-5-5-5--5--7--8-8-8-8-8-8-8-8--3-3-3-3--5-5-5-5--|
|--5-5-5-5-5-5-5-5--3-3-3-3-3-3--5--7--8-8-8-8-8-8-8-8--3-3-3-3--5-5-5-5--|
|--5-5-5-5-5-5-5-5--3-3-3-3-3-3--3--5--6-6-6-6-6-6-6-6--1-1-1-1--3-3-3-3--|

|------------------------------------------|
|------------------------------------------|
|--7-7-7-7--10-10-10-10--12-12-12-12--14/--|
|------------------------------------------|
|--5-5-5-5--8--8--8--8---10-10-10-10--12/--|
|--0-0-0-0--0--0--0--0---0--0--0--0---0----|

Verse
|--5-5-5-5--8--8--8--8---3-3-3-3--5-5-5-5--6-6-6-6-6-6-6-6--5-5-5-5-5-5-5-5--|
|--7-7-7-7--10-10-10-10--5-5-5-5--7-7-7-7--6-6-6-6-6-6-6-6--5-5-5-5-5-5-5-5--|
|--7-7-7-7--10-10-10-10--5-5-5-5--7-7-7-7--7-7-7-7-7-7-7-7--6-6-6-6-6-6-6-6--|
|--7-7-7-7--10-10-10-10--5-5-5-5--7-7-7-7--8-8-8-8-8-8-8-8--7-7-7-7-7-7-7-7--|
|--5-5-5-5--8--8--8--8---3-3-3-3--5-5-5-5--8-8-8-8-8-8-8-8--7-7-7-7-7-7-7-7--|
|--5-5-5-5--8--8--8--8---3-3-3-3--5-5-5-5--6-6-6-6-6-6-6-6--5-5-5-5-5-5-5-5--|

|--5-5-5-5--8--8--8--8---3-3-3-3--5-5-5-5--6--*--3-3-3-3-3-3-3-3--|
|--7-7-7-7--10-10-10-10--5-5-5-5--7-7-7-7--6--S--5-5-5-5-5-5-5-5--|
|--7-7-7-7--10-10-10-10--5-5-5-5--7-7-7-7--7--T--5-5-5-5-5-5-5-5--|
|--7-7-7-7--10-10-10-10--5-5-5-5--7-7-7-7--8--O--5-5-5-5-5-5-5-5--|
|--5-5-5-5--8--8--8--8---3-3-3-3--5-5-5-5--8--P--3-3-3-3-3-3-3-3--|
|--5-5-5-5--8--8--8--8---3-3-3-3--5-5-5-5--6--*--3-3-3-3-3-3-3-3--|

Chorus
|--5-5-5-5-5-5-5-5--3-3-3-3-3-3--3--5--6-6-6-6-6-6-6-6--1-1-1-1-1-1-1-1--|
|--7-7-7-7-7-7-7-7--5-5-5-5-5-5--3--5--6-6-6-6-6-6-6-6--1-1-1-1-1-1-1-1--|
|--7-7-7-7-7-7-7-7--5-5-5-5-5-5--4--6--7-7-7-7-7-7-7-7--2-2-2-2-2-2-2-2--|
|--7-7-7-7-7-7-7-7--5-5-5-5-5-5--5--7--8-8-8-8-8-8-8-8--3-3-3-3-3-3-3-3--|
|--5-5-5-5-5-5-5-5--3-3-3-3-3-3--5--7--8-8-8-8-8-8-8-8--3-3-3-3-3-3-3-3--|
|--5-5-5-5-5-5-5-5--3-3-3-3-3-3--3--5--6-6-6-6-6-6-6-6--1-1-1-1-1-1-1-1--|

|--5-5-5-5-5-5-5-5--3-3-3-3-3-3--3--5--6-6-6-6-6-6-6-6--1-1-1-1--3-3-3-3--|
|--7-7-7-7-7-7-7-7--5-5-5-5-5-5--3--5--6-6-6-6-6-6-6-6--1-1-1-1--3-3-3-3--|
|--7-7-7-7-7-7-7-7--5-5-5-5-5-5--4--6--7-7-7-7-7-7-7-7--2-2-2-2--4-4-4-4--|
|--7-7-7-7-7-7-7-7--5-5-5-5-5-5--5--7--8-8-8-8-8-8-8-8--3-3-3-3--5-5-5-5--|
|--5-5-5-5-5-5-5-5--3-3-3-3-3-3--5--7--8-8-8-8-8-8-8-8--3-3-3-3--5-5-5-5--|
|--5-5-5-5-5-5-5-5--3-3-3-3-3-3--3--5--6-6-6-6-6-6-6-6--1-1-1-1--3-3-3-3--|

|----------|
|----------|
|--7---14--|
|----------|
|--5---12--|
|--0---0---|

Solo
|-----------------------13----13----12--12--12--13--13--13--13--------------------10--12--
|------------10--12--13----10----10----------------------------13--10--13--10--11---------
|--9--10--12------------------------------------------------------------------------------
|-----------------------------------------------------------------------------------------
|-----------------------------------------------------------------------------------------
|-----------------------------------------------------------------------------------------

--13----13----12--12--12--13--13--13--13--------------------10--12--13--|--12--13--|
-----10----10----------------------------13--10--13--10--11-------------|--10--10--|
------------------------------------------------------------------------|----------|
------------------------------------------------------------------------|----------|
------------------------------------------------------------------------|----------|
------------------------------------------------------------------------|----------|

Breakdown
|-----------------------------5-5-5-5--6-6-6-6-6-6-6-6--|
|-----------------------------5-5-5-5--6-6-6-6-6-6-6-6--|
|-7-7--9-9--10-10--12-12--14--6-6-6-6--7-7-7-7-7-7-7-7--|
|-----------------------------7-7-7-7--8-8-8-8-8-8-8-8--|
|-5-5--7-7--8--8---10-10--12--7-7-7-7--8-8-8-8-8-8-8-8--|
|-0-0--0-0--0--0---0--0---0---5-5-5-5--6-6-6-6-6-6-6-6--|

|-----------------------------5-5-5-5--6-6-6-6-6-6-6-6--|
|-----------------------------5-5-5-5--6-6-6-6-6-6-6-6--|
|-7-7--9-9--10-10--12-12--14--6-6-6-6--7-7-7-7-7-7-7-7--|
|-----------------------------7-7-7-7--8-8-8-8-8-8-8-8--|
|-5-5--7-7--8--8---10-10--12--7-7-7-7--8-8-8-8-8-8-8-8--|
|-0-0--0-0--0--0---0--0---0---5-5-5-5--6-6-6-6-6-6-6-6--|

|----------------------------|-------------------|
|----------------------------|-------------------|
|--7-7--7-7--7-7--7-7--7--7--|--7-7--7-7--7/-14--|
|----------------------------|-------------------|
|--5-5--5-5--5-5--5-5--5--5--|--5-5--5-5--5/-12--|
|--0-0--0-0--0-0--0-0--0--0--|--0-0--0-0--0--0---|

Chorus
|--5-5-5-5-5-5-5-5--3-3-3-3-3-3--3--5--6-6-6-6-6-6-6-6--1-1-1-1-1-1-1-1--|
|--7-7-7-7-7-7-7-7--5-5-5-5-5-5--3--5--6-6-6-6-6-6-6-6--1-1-1-1-1-1-1-1--|
|--7-7-7-7-7-7-7-7--5-5-5-5-5-5--4--6--7-7-7-7-7-7-7-7--2-2-2-2-2-2-2-2--|
|--7-7-7-7-7-7-7-7--5-5-5-5-5-5--5--7--8-8-8-8-8-8-8-8--3-3-3-3-3-3-3-3--|
|--5-5-5-5-5-5-5-5--3-3-3-3-3-3--5--7--8-8-8-8-8-8-8-8--3-3-3-3-3-3-3-3--|
|--5-5-5-5-5-5-5-5--3-3-3-3-3-3--3--5--6-6-6-6-6-6-6-6--1-1-1-1-1-1-1-1--|

|--5-5-5-5-5-5-5-5--3-3-3-3-3-3--3--5--6-6-6-6-6-6-6-6--1-1-1-1--3-3-3-3--|
|--7-7-7-7-7-7-7-7--5-5-5-5-5-5--3--5--6-6-6-6-6-6-6-6--1-1-1-1--3-3-3-3--|
|--7-7-7-7-7-7-7-7--5-5-5-5-5-5--4--6--7-7-7-7-7-7-7-7--2-2-2-2--4-4-4-4--|
|--7-7-7-7-7-7-7-7--5-5-5-5-5-5--5--7--8-8-8-8-8-8-8-8--3-3-3-3--5-5-5-5--|
|--5-5-5-5-5-5-5-5--3-3-3-3-3-3--5--7--8-8-8-8-8-8-8-8--3-3-3-3--5-5-5-5--|
|--5-5-5-5-5-5-5-5--3-3-3-3-3-3--3--5--6-6-6-6-6-6-6-6--1-1-1-1--3-3-3-3--|

|--5-5-5-5-5-5-5-5--3-3-3-3-3-3--3--5--6-6-6-6-6-6-6-6--1-1-1-1-1-1-1-1--|
|--7-7-7-7-7-7-7-7--5-5-5-5-5-5--3--5--6-6-6-6-6-6-6-6--1-1-1-1-1-1-1-1--|
|--7-7-7-7-7-7-7-7--5-5-5-5-5-5--4--6--7-7-7-7-7-7-7-7--2-2-2-2-2-2-2-2--|
|--7-7-7-7-7-7-7-7--5-5-5-5-5-5--5--7--8-8-8-8-8-8-8-8--3-3-3-3-3-3-3-3--|
|--5-5-5-5-5-5-5-5--3-3-3-3-3-3--5--7--8-8-8-8-8-8-8-8--3-3-3-3-3-3-3-3--|
|--5-5-5-5-5-5-5-5--3-3-3-3-3-3--3--5--6-6-6-6-6-6-6-6--1-1-1-1-1-1-1-1--|

|--5-5-5-5-5-5-5-5--3-3-3-3-3-3--3--5--6-6-6-6-6-6-6-6--1-1-1-1--3-3-3-3--|
|--7-7-7-7-7-7-7-7--5-5-5-5-5-5--3--5--6-6-6-6-6-6-6-6--1-1-1-1--3-3-3-3--|
|--7-7-7-7-7-7-7-7--5-5-5-5-5-5--4--6--7-7-7-7-7-7-7-7--2-2-2-2--4-4-4-4--|
|--7-7-7-7-7-7-7-7--5-5-5-5-5-5--5--7--8-8-8-8-8-8-8-8--3-3-3-3--5-5-5-5--|
|--5-5-5-5-5-5-5-5--3-3-3-3-3-3--5--7--8-8-8-8-8-8-8-8--3-3-3-3--5-5-5-5--|
|--5-5-5-5-5-5-5-5--3-3-3-3-3-3--3--5--6-6-6-6-6-6-6-6--1-1-1-1--3-3-3-3--|

Outro
(repeat over and over in a 1,2,1,2,1,2 kinda melody)
|-----|
|-----|
|--7--|
|-----|
|--5--|
|--0--|