Air Supply - All Out Of Love Text Guitar Tab

Learn the song with the online tablature player
ALL OUT OF LOVE
By: Air Supply

Guitar Trancription by: §mo'',)tH (,''rImInAL

    G/B    F/A     F/Bb

E    3      1       1
B    3      1       1
G    0      2       2
D    0      3       3
A    2      0       1
D    X      X       X

Intro
C G/B F/A F G

    C                 G/B                F/A             F     G
  E-------0------------------3-----------------1---------------------|
  B-----------1------------------2----------------1---------1-----2--|
  G-----0-------0----------0-------0---------2------2------2-----4---|
  D----2----------2------0-----------0-----3----------3---3-----5----|
  A--3-----------------2-----------------0---------------3-----5-----|
  D------------------------------------------------------------------|
       Repeat this 2X

    C
  E-------0----------------0----------|
  B-----------1----------------1------|
  G-----0-------0--------0-------0----|
  D----2----------2----2-----------2--|
  A--3---------------3----------------|
  D-----------------------------------|

        I
     F
I'm lying alone
         C
With my head on the phone
F                        C
Thinking of you till it hurts
    F
I know you hurt too
         G/B
But what else can we do
  F/Bb              F   G
Tormented and torn apart

        II
    F
I wish I could carry
       C
Your smile in my heart
F                               C
The times when my life seems so low
       F                       G/B
People make me believe what tomorrow could bring
       F/Bb                 F
When today doesn't really know.
          G
Doesn't really know

REFRAIN
         C
    I'm all out of love
           G/B
    I'm so lost without you
            F/A
    I know you were right
           F     G
    Believing for so long
         C
    I'm all out love
           G/B
    What am I without you?
           F/A
    I can't be too late
           F     G            C
    (To say that)
    (I know     )  I was so wrong

        III
        F
I want you to comeback
      C
And carry me home
F                             C
Away from these long lonely nights
F
I'm reaching for you
          G/B
Are you feeling it too
 F/Bb                        F   G
Does the feeling seem oh so right

        IV
      F
And what would you say
       C
If I call on you now
F                         C
And say that I can't hold on
F
There's no easy way
         G/B
It gets harder each day
        F/Bb               F
Please love me or I'll be gone
          G
I'll be gone

(REPEAT REFRAIN)

Bridge/Interlude(whatever, i don't know d ryt term!)
                 G/B Am     Em               F Em
(Back up vocals) Ah--, What are you thinking of
                 Dm    Em              Am
                 What are you thinking of
                 Am                    F Em
(Back up vocals) What are you thinking of
                 Dm                     F G
                 What are you thinking of---

(REPEAT REFRAIN 3x)

Note: -- Use the plucking in intro for the chorus
      -- You can just make some plucking of ur own in the stanza parts
         or u can make use of the following simple improvise plucking

        * For every Chords except the first last  two chords of the
        first and third stanza (F and G)
                E----------#-----------|
                B---#------#----#------|
                G--------#--------#----|
                D---#--#------------#--|
                A---#------------------|
                D----------------------|

        * For the last two chords of the First and third stanza

                      F    G
         E--------------------|
         B--------1----3------|
          G-------2----4------|
          D------3----5-------|
          A-----3----5--------|
          D-------------------|