Anti-Flag - Press Corpse Text Guitar Tab

Learn song with the online tabulature player
-------------------------------------------------------------------------------
                             THE PRESS CORPSE - Anti-Flag
-------------------------------------------------------------------------------
Tabbed by: Dan
Email: neverbeenboreder@aim.com

Tuning: STandard

Ok so i decided to redo this tab... cuz my last one sucked


Intro


e|---------------------------------------------------------------------------|
B|---------------------------------------------------------------------------|
G|3-3-3-3-3-3-3-3-3----------------------------------------------------------|
D|3-3-3-3-3-3-3-3-3----------------------------------------------------------|
A|1-1-1-1-1-1-1-1-1----------------------------------------------------------|
E|---------------------------------------------------------------------------|


The memo says we gotta...

VERSE

e|---------------------------------------------------------------------------|
B|---------------------------------------------------------------------------|
G|3--3-3--3-3--3-3--3-6--6-6--6----------------------------------------------|
D|3--3-3--3-3--3-3--3-6--6-6--6-6--6-6---------------------------------------| x2
A|1--1-1--1-1--1-1--1-4--4-4--4-6--6-6---------------------------------------|
E|------------------------------4--4-4---------------------------------------|

VERSE part 2

(We don't want to talk about it)


e|---------------------------------------------------------------------------|
B|---------------------------------------------------------------------------|
G|--------------------------------3-3-3-3-3-3-3-3----------------------------|
D|4-4-4-4-4-4-4-4-4-4-4-4-4-4-4-4-3-3-3-3-3-3-3-3-6-6-6-6-6-6-6-6------------|
A|4-4-4-4-4-4-4-4-4-4-4-4-4-4-4-4-1-1-1-1-1-1-1-1-6-6-6-6-6-6-6-6------------|
E|2-2-2-2-2-2-2-2-2-2-2-2-2-2-2-2-----------------4-4-4-4-4-4-4-4------------|

PRE-CHORUS

(They talk it up all day...)

e|-----------------------------------------------------------------------------|
B|-----------------------------------------------------------------------------|
G|-----3---------3---------3---------------------------------------------------|
D|4--4-3--4-4--4-3--4-4--4-3--4-6--6-6-----------------------------------------|
A|4--4-1--4-4--4-1--4-4--4-1--4-6--6-6-----------------------------------------|
E|2--2----2-2--2----2-2--2----2-4--4-4-----------------------------------------|

e|-----------------------------------------------------------------------------|
B|-----------------------------------------------------------------------------|
G|-----3---------3---------3---------------------------------------------------|
D|4--4-3--4-4--4-3--4-4--4-3--4-6--6--6--6-6-6-6-------------------------------|
A|4--4-1--4-4--4-1--4-4--4-1--4-6--6--6--6-6-6-6-------------------------------|
E|2--2----2-2--2----2-2--2----2-4--4--4--4-4-4-4-------------------------------|


CHORUS

guitar 1

they don't want to...

e|---------------------------------------------------------------------------|
B|---------------------------------------------------------------------------|
G|3-3-3-3-3-3-3-3-3-3-3-3-3-3-3-3-6-6-6-6-6-6-6-6-6-6-6-6-6-6-6-6------------|
D|3-3-3-3-3-3-3-3-3-3-3-3-3-3-3-3-6-6-6-6-6-6-6-6-6-6-6-6-6-6-6-6------------|
A|1-1-1-1-1-1-1-1-1-1-1-1-1-1-1-1-4-4-4-4-4-4-4-4-4-4-4-4-4-4-4-4------------|
E|---------------------------------------------------------------------------|

e|---------------------------------------------------------------------------|
B|---------------------------------------------------------------------------|
G|---------------------------------------------------------------------------|
D|6-6-6-6-6-6-6-6-6-6-6-6-6-6-6-6-4-4-4-4-4-4-4-4-6-6-6-6-6-6-6-6------------|
A|6-6-6-6-6-6-6-6-6-6-6-6-6-6-6-6-4-4-4-4-4-4-4-4-6-6-6-6-6-6-6-6------------|
E|4-4-4-4-4-4-4-4-4-4-4-4-4-4-4-4-2-2-2-2-2-2-2-2-4-4-4-4-4-4-4-4------------|

guitar 2

e|---------------------------------------------------------------------------|
B|---------------------------------------------------------------------------|
G|1515151515151515151515151515151315151515151515151515151515151518-----------|
D|x-x-x-x-x-x-x-x-x-x-x-x-x-x-x-x-x-x-x-x-x-x-x-x-x-x-x-x-x-x-x-x------------|
A|1313131313131313131313131313131113131313131313131313131313131316-----------|
E|---------------------------------------------------------------------------|

e|---------------------------------------------------------------------------|
B|---------------------------------------------------------------------------|
G|151515151515151515151515151515131515151515-13-1515151515-13----------------|
D|x-x-x-x-x-x-x-x-x-x-x-x-x-x-x-x-x-x-x-x-x--x--x-x-x-x-x--x-----------------|
A|131313131313131313131313131313111313131313-11-1313131313-11----------------|
E|---------------------------------------------------------------------------|

BRIDGE PART 1

Guitar 1

e|---------------------------------------------------------------------------|
B|---------------------------------------------------------------------------|
G|3--------------------------------------------------------------------------|
D|3--------------------------------------------------------------------------|
A|1--------------------------------------------------------------------------|
E|---------------------------------------------------------------------------|

Guitar 2

e|---------------------------------------------------------------------------|
B|---------------------------------------------------------------------------|
G|12-10--910-9-5-7-----------------------------------------------------------|
D|x---x--x-x-x-x-x-----------------------------------------------------------|
A|10--8--7-8-7-3-5-----------------------------------------------------------|
E|---------------------------------------------------------------------------|

Guitar 1 (same time as guitar 2 above)

e|---------------------------------------------------------------------------|
B|---------------------------------------------------------------------------|
G|-------------6-3-----------------------------------------------------------|
D|-------------6-3-----------------------------------------------------------|
A|-------------4-1-----------------------------------------------------------|
E|---------------------------------------------------------------------------|


e|---------------------------------------------------------------------------|
B|---------------------------------------------------------------------------|
G|910-910-1210-9-5-----------------------------------------------------------|
D|x-x-x-x--x-x-x-x-----------------------------------------------------------|
A|7-8-7-8-10-8-7-3-----------------------------------------------------------|
E|---------------------------------------------------------------------------|

Guitar 1

(Fires fueled on endless lies)

e|---------------------------------------------------------------------------|
B|---------------------------------------------------------------------------|
G|3--3--3-3-3--3--3--3-3-3--6--6--6-6-6--------------------------------------|
D|3--3--3-3-3--3--3--3-3-3--6--6--6-6-6--6--6--6-6-6---------(x2)------------|
A|1--1--1-1-1--1--1--1-1-1--4--4--4-4-4--6--6--6-6-6-------------------------|
E|---------------------------------------4--4--4-4-4-------------------------|

Guitar 2

e|---------------------------------------------------------------------------|
B|---------------------------------------------------------------------------|
G|1515151515151515151515151515151315151515151515151515151515151518-----------|
D|x-x-x-x-x-x-x-x-x-x-x-x-x-x-x-x-x-x-x-x-x-x-x-x-x-x-x-x-x-x-x-x------------|
A|1313131313131313131313131313131113131313131313131313131313131316-----------|
E|---------------------------------------------------------------------------|

e|---------------------------------------------------------------------------|
B|---------------------------------------------------------------------------|
G|151515151515151515151515151515131515151515-13-1515151515-13----------------|
D|x-x-x-x-x-x-x-x-x-x-x-x-x-x-x-x-x-x-x-x-x--x--x-x-x-x-x--x-----------------|
A|131313131313131313131313131313111313131313-11-1313131313-11----------------|
E|---------------------------------------------------------------------------|


(We don't want to talk about it...)

e|---------------------------------------------------------------------------|
B|---------------------------------------------------------------------------|
G|11-----10-------11-----10-1315---------------------------------------------|
D|x------x--1011--x------x--x-x----------------------------------------------|
A|9------8--x-x---9------8--1113---------------------------------------------|
E|----------8-9--------------------------------------------------------------|

BRIDGE PART 2

(we don't want to talk about it...)

e|---------------------------------------------------------------------------|
B|---------------------------------------------------------------------------|
G|11-10-8--6--11-10----------------------------------------------------------|
D|x--x--x--x--x--x--10-11----------------------------------------------------|
A|9--8--6--4--9--8--x--x-----------------------------------------------------|
E|------------------8--9-----------------------------------------------------|


Order:
INTRO
VERSE
VERSE PART 2
VERSE
PRE CHORUS
CHORUS x2
INTRO
VERSE
VERSE PART 2
VERSE
PRE CHORUS
CHORUS
INTRO
BRIDGE
BRIDGE PART 2 x4
CHORUS
INTRO