Aquabats - Tiger Rider Vs The Time Sprinkler Text Guitar Tab

Learn the song with the online tablature player
INTRO
E-------------------------------------------|
B-------------------------------------------|
G-4-4-4-4---------------7-7-7-7----7-7-7-7--|  x2
D-4-4-4-4----4-4-4-4----7-7-7-7----7-7-7-7--|
A-2-2-2-2----4-4-4-4----5-5-5-5----5-5-5-5--|
E------------2-2-2-2------------------------|

VERSE ONE
E-------------------------------------------|
B-------------------------------------------|
G-4-4-4-4---------------7-7-7-7----7-7-7-7--|  x2
D-4-4-4-4----4-4-4-4----7-7-7-7----7-7-7-7--|
A-2-2-2-2----4-4-4-4----5-5-5-5----5-5-5-5--|
E------------2-2-2-2------------------------|

FAST GUITAR RIFF ONE:
(I ONLY PUT SPACES BETWEEN SOME OF THE NOTES TO MAKE IT EASIER TO READ)
E-------------------------------------------|
B-------------------------------------------|
G-------------------------------------------|
D-----0--------0--------0-------------------|
A-2202-202-2202-202-2202-202-222222---------|
E-------------------------------------------|

VERSE TWO
E-------------------------------------------|
B-------------------------------------------|
G-4-4-4-4---------------7-7-7-7----7-7-7-7--|  x2
D-4-4-4-4----4-4-4-4----7-7-7-7----7-7-7-7--|
A-2-2-2-2----4-4-4-4----5-5-5-5----5-5-5-5--|
E------------2-2-2-2------------------------|

FAST GUITAR RIFF TWO:
(I ONLY PUT SPACES BETWEEN SOME OF THE NOTES TO MAKE IT EASIER TO READ,
EXCEPT FOR THE LAST PART, THERE IS A QUICK 1/2 SEOND PAUSE)
E-------------------------------------------|
B-------------------------------------------|
G-------------------------------------------|  x2
D-----0--------0--------0-----222222--------|
A-2202-202-2202-202-2202-202----------------|
E-------------------------------------------|

PRE COROUS:
E-------------------------------------------|
B-------------------------------------------|
G-7-7-7-7-7-7----9-9-9-9-9-9----------------|
D-7-7-7-7-7-7----9-9-9-9-9-9----------------|
A-5-5-5-5-5-5----7-7-7-7-7-7----------------|
E-------------------------------------------|

OUTRO
(I ONLY KNOW THE BACKGROUND POWER CORDING GUITAR
AND NOT THE MAIN "SOLO TYPE" GUITAR)
E-------------------------------------------|
B-------------------------------------------|
G-4-4-4-4---------------7-7-7-7----7-7-7-7--|  x2
D-4-4-4-4----4-4-4-4----7-7-7-7----7-7-7-7--|
A-2-2-2-2----4-4-4-4----5-5-5-5----5-5-5-5--|
E------------2-2-2-2------------------------|

FAST GUITAR RIFF THREE:
(I ONLY PUT SPACES BETWEEN SOME OF THE NOTES TO MAKE IT EASIER TO READ)
E-------------------------------------------|
B-------------------------------------------|
G-------------------------------------------|
D-----0--------0--------0-------------------|
A-2202-202-2202-202-2202-202-222222---------|
E-------------------------------------------|

VERSE THREE
E-------------------------------------------|
B-------------------------------------------|
G-4-4-4-4---------------7-7-7-7----7-7-7-7--|  x2
D-4-4-4-4----4-4-4-4----7-7-7-7----7-7-7-7--|
A-2-2-2-2----4-4-4-4----5-5-5-5----5-5-5-5--|
E------------2-2-2-2------------------------|

FAST GUITAR RIFF THREE:
(I ONLY PUT SPACES BETWEEN SOME OF THE NOTES TO MAKE IT EASIER TO READ,
EXCEPT FOR THE LAST PART, THERE IS A QUICK 1/2 SEOND PAUSE)
E-------------------------------------------|
B-------------------------------------------|
G-------------------------------------------|  x2
D-----0--------0--------0-----222222--------|
A-2202-202-2202-202-2202-202----------------|
E-------------------------------------------|

PRE COROUS:
E-------------------------------------------|
B-------------------------------------------|
G-7-7-7-7-7-7----9-9-9-9-9-9----------------|
D-7-7-7-7-7-7----9-9-9-9-9-9----------------|
A-5-5-5-5-5-5----7-7-7-7-7-7----------------|
E-------------------------------------------|

PRE COROUS:
E-------------------------------------------|
B-------------------------------------------|
G-7-7-7-7-7-7----9-9-9-9-9-9----------------|
D-7-7-7-7-7-7----9-9-9-9-9-9----------------|
A-5-5-5-5-5-5----7-7-7-7-7-7----------------|
E-------------------------------------------|