Arctic Monkeys - I Bet You Look Good On The Dancefloor Text Guitar Tab

Learn the song with the online tablature player
e------------------------------------------------------6-8-10-10-10-10-|
B--------------------------------------------------6-8-----------------|
G----------------------------------------------5-7---------------------|
D-----555----55555----55555----553-3-3-3-5-5-8-------------------------|
A-----555----55555----55555----553-3-3-3-5-5---------------------------|
E-----333----33333----33333----331-1-1-1-3-3---------------------------|

e--10-10-10-10-10-8--6----6--8--6--------6--8-8-8-8-8-8/10-|
B-----------------------8----------8-6-8-------------------|
G----------------------------------------------------------|
D----------------------------------------------------------|
A----------------------------------------------------------|
E----------------------------------------------------------|