Avey Tare And Kria Brekkan - Lay Lay Off Faselam Chords

 
No chord
    
Standard guitar tuning:
E
A
D
G
B
E
No capo
-0-----5--------0---|
-0-----5--------0---|
-0-----5--------0---|
-0-----5--------0---|
-0-----5--------0---|
-0-----5--------0---|
Sometimes I wanna cry
-0------2------------0---|
-0------2------------0---|
-0------2------------0---|
-0------2------------0---|
-0------2------------0---|
-0------2------------0---|
Well you've seen it in my eyes And I sorta like this place So, why d'you wanna brace
-0-------5---------0---|
-0-------5---------0---|
-0-------5---------0---|
-0-------5---------0---|
-0-------5---------0---|
-0-------5---------0---|
It's a funny little thing
-0------2-----0---|
-0------2-----0---|
-0------2-----0---|
-0------2-----0---|
-0------2-- --0---|
-0------2-----0---|
Ghostly arrows seem to come and go With an "Oh, no"
-0-------5-----0---|
-0-------5-----0---|
-0-------5-----0---|
-0-------5-----0---|
-0-------5-----0---|
-0-------5-----0---|
We had a quiet thing
-0------2-----0---|
-0------2-----0---|
-0------2-----0---|
-0------2-----0---|
-0------2-- --0---|
-0------2-----0---|
on the soft ground I hear a sad rain killed the calm sound check out my blog for indie music and other fancy delights. personalsenglishteacher.blogspot.com THANKS!

All Content on this page is the property of the copyright owner of the original composition.