Badly Drawn Boy - Everybodys Stalking Chords

 
No chord
    
Standard guitar tuning:
E
A
D
G
B
E
No capo

Verse

e|---x-------x-------0------------------------------------------------------|
B|---2-------2-------0------------------------------------------------------|
G|---3-------2-------1------------------------------------------------------|
D|---3-------2-------2------------------------------------------------------|
A|---4---------------2------------------------------------------------------|
E|-------------------0------------------------------------------------------|

Chorus

e|---x-------0-------x------------------------------------------------------|
B|---2-------0-------2------------------------------------------------------|
G|---2-------1-------3------------------------------------------------------|
D|---2-------2-------3------------------------------------------------------|
A|-----------2-------4------------------------------------------------------|
E|-----------0--------------------------------------------------------------|
Thanks guys. Hope you enjoy.

All Content on this page is the property of the copyright owner of the original composition.