Ben Harper - Burn To Shine Text Bass Tab

Learn song with the online tabulature player
Ben Harper and The Innocent Criminals

Burn To Shine

Transcribed By Matthew Moore (mmoore2080@genie.co.uk)


Main Riff Verse
---------|---------|-----------|----7---7------
---------|---------|--------5--|4-7------------
---------|---------|--2-3-5---5|------5---5-7-
-0-0-0-0-|0-0-0-2-3|3----------|---------------

Last bar of Main riff when preceeding Chorus

|-----7---7--------|
|-4-7-------5-7----|
|-------5-------0--|
|------------------|

Chorus riff

------------|-----------|----------4--|-------------
---------7--|--------5--|------4-7---7|-----4-7-----
-0-4-5-7----|----2-5---4|-5-5---------|-5-5---------
-----------2|-3-3-------|-------------|---------2-3-

Last bar of Chorus riff when preceeding bridge

|------------|
|-----4-7----|
|-5-5--------|
|---------3--|


Bridge

------------|----------|------------
------------|----------|------------
--0-0-0-0---|0-0-0-0---|0---0---0---
----------3-|--------3-|--3---3-----


Variation on main riff, played in last verse

---------|---12/13-----12/13--|-----------|----7---7------
---------|---11/12-----11/12--|--------5--|4-7------------
---------|--------------------|--2-3-5---5|------5---5-7-
-0-0-0-0-|0---------0---------|3----------|---------------

Variation on Bridge, played as Outro

--------------|------------|----------------
--------------|------------|----------------
--0-0-0-0-3-2-|0-0-0-0-3-2-|0-3-2--0-3-2--0-
--------------|------------|----------------


Taken from BASSMASTA.NET - http://www.bassmasta.net