Bon Jovi - Wanted Dead Or Alive Text Guitar Tab

Learn the song with the online tablature player
The most important with this song is the timing and i wrote the
main part, not not the whole song. Although, with the main
part you can learn the hole song which is based on the same
chords used in the main part (D, Cadd9, F, G, and some
variations of D). Good luck!

5¤ = Artificial harmonic
5b(7) = Bend 5th up to 7th
5~ = Vibrato
5p3 = Play 5th pull off to 3rd
3h5 = Play 3rd hammer on 5th

Intro

e|---------13-------------------12------------------10-------|
B|-----------------------------------------------------------|
G|----14-------14---------12-------12--------10---------10---|
D|--0-------------------0-----------------0------------------|
A|-----------------------------------------------------------|
E|-----------------------------------------------------------|

e|---------8----------------5-----------------------3--------|
B|-----------------------------------------------------------|
G|----9------9--------5--------5------------4----------4-----|
D|-0-------------0--------------------0----------------------|
A|-----------------------------------------------------------|
E|-----------------------------------------------------------|

e|----3/1---|
B|----------|
G|----4/2---|
D|----------|
A|----------|
E|----------|

Play the intro (above) 2 times

e|--------------------------------0----------0-------------------|
B|-----------------------------------3---------3-----------------|
G|--------------------------------------2--------2---------------|
D|-----------------0---3---0-------------------------------------|
A|---0---0---3---------------------------------------------------|
E|---------------------------------------------------------------|

Play the part above (not intro) 3 times and after the 3rd time, play
the part below 1 time and at last the main part.

                Chord    Chord
e|----------------------------------------------------------------|
B|-----------1--------3-------------------------------------------|
G|-----------2--------2-------------------------------------------|
D|-----------3--------0-------------------------------------------|
A|----3-----------------------------------------------------------|
E|----------------------------------------------------------------|

Main part
       [     Chords     ]
e|----2-----2------2------2------3------2------0-------2---3-----|
B|----3-----3------3------3------3------3------3-------3---3-----|
G|----2-----2------2------2------2------2------2-------2---------|
D|----0-----0------0------0------0------0------0-------0---------|
A|---------------------------------------------------------------|
E|---------------------------------------------------------------|
       [     Chords     ]
e|-----3-----3-----3-----3---3------------3-------3------3-------|
B|-----3-----3-----3-----3---3------------3-------3------3-------|
G|-----0-----0-----0-----0---0------------0-------0------0-------|
D|-----2-----2-----2-----2---0------------0-------2------2-------|
A|-----3-----3-----3-----3---2-----0h2---2-------3------3--------|
E|-----------------------------3---------------------------------|
       [     Chords     ]
e|-----3------3------3------------3------3-----1-----2-----------|
B|-----3------3------3-----------3------3-----1------3-----------|
G|-----0------0------0-----------0------0-----2------2-----------|
D|-----2------2------0-----------0------2-----3------------------|
A|-----3------3------2----0h2---2------3-----3-------------------|
E|--------------------3------------------------1-----------------|

Solo

e|-------------------------------------------------------------|
B|-------------------------------------------------------------|
G|-------------------------------------------------------------|
D|---------------------------------------5¤-5¤-5¤-5¤-5¤-3¤-----|
A|---5p3--5--5--5p3---5-----3-----5----------------------------|
E|---------------------------------5---------------------------|

e|-------------------13--15--15b(17)---15----15p13---15~-------|
B|-----------13--15--------------------------------------------|
G|---12--14----------------------------------------------------|
D|-------------------------------------------------------------|
A|-------------------------------------------------------------|
E|-------------------------------------------------------------|

e|---------------------------------------------------------------|
B|---------------------------------------------------------------|
G|---------------------------------------------------------------|
D|---------7----5---5---7---5----------3--------------3-5¤-5¤-3¤-|
A|-0--0---5----3---3---5---5-----3h5-----5---3---5---------------|
E|---------------------------------------------5-----------------|

e|----------------------------------------------------------------13-|
B|---------------------------------------------------13--------------|
G|-------------------------------------------12b(14)---12b(14)-------|
D|---0h3p0--0-----0--3--5p3--3---------------------------------------|
A|---------------3---------------------------------------------------|
E|-------------------------------------------------------------------|
                   Chord
e|--------------------------------------------------------------|
B|-------------13-----------------------------------------------|
G|--12b(14)--------12b(14)---12---10----------------------------|
D|----------------------------------------------------------7---|
A|-----------------------------------------5-3-------------5----|
E|----------------------------------------------5-3-1-0---------|