Bullet For My Valentine - Hand Of Blood Text Guitar Tab

Learn the song with the online tablature player
             W                   W                   W
D||-------|-------------------|-------------------|-------------------|
A||-------|-------------------|-------------------|-------------------|
F||-------|-------------------|-------------------|-------------------|
C||-------|-------------------|-------------------|-------------------|
G||-------|--0----------------|--L----------------|--L----------------|
C||-------|--0----------------|--L----------------|--L----------------|

INTRO

  W                   E  E  E  E  E  E  E  E     E  E  E  E  E  E  E  E
-------------------|--------------------------|--------------------------|
-------------------|--------------------------|--------------------------|
-------------------|--------------------------|--------------------------|
-------------------|--0--7--8--0--5--7--0--3--|--5--0--2--3--0--2--5--2--|
--L----------------|--------------------------|--------------------------|
--L----------------|--------------------------|--------------------------|

  E  E  E  E  E  E  E  E     E  E  E  E  S  S  S  S  S  S  S  S
--------------------------|-------------------------------------|
--------------------------|-------------------------------------|
--------------------------|-------------------------------------|
--0--7--8--0--5--7--0--3--|--5--0--2--3--2h-5p-2h-5p-2h-5p-2h-5-|
--------------------------|-------------------------------------|
--------------------------|-------------------------------------|

  E  E  E  E  E  E  E  E     E  E  E  E  E  E  E  E
--------------------------|--------------------------|
--------------------------|--------------------------|
--------------------------|--------------------------|
--0--7--8--0--5--7--0--3--|--5--0--2--3--0--2--5--2--|
--------------------------|--------------------------|
--------------------------|--------------------------|

INTRO PT. 2 (3 bar on line)

  E  E  E  E  E  E  E  E     E  E  E  E  Q    Q       E  E  E  E  E  E  E  E
--------------------------|------------------------|--------------------------|
--------------------------|------------------------|--------------------------|
--------------------------|------------------------|--------------------------|
--0--7--8--0--5--7--0--3--|--5--0--2--3------------|--------------------------|
--------------------------|------------------------|--0--7--8--0--5--7--0--3--|
--------------------------|------------------------|-----------------------3--|

  E  E  E  E  E  E  E  E     E  E  E  E  E  E  E  E
--------------------------|--------------------------|
--------------------------|--------------------------|
--------------------------|--------------------------|
--------------------------|--------------------------|
-----3-----3--2--3--2--3--|--0--7--8--0--5--7--0--3--|
-----3-----3--2--3--2--3--|-----------------------3--|

                             PM PM    PM PM    PM PM
  E  E  E  E  E  E  E  E     E  E  E  E  E  E  E  E
--------------------------|--------------------------|
--------------------------|--------------------------|
--------------------------|--------------------------|
--------------------------|--------3--------3--------|
-----3-----3--2--3--2--3--|--------------------------|
-----3-----3--2--3--2--3--|--0--1-----0--1-----0--1--|

     PM PM    PM PM    PM    PM PM    PM PM    PM PM       PM PM
  E  E  E  E  E  E  E  E     E  E  E  E  E  E  E  E     E  E  E  E  Q    Q
--------------------------|--------------------------|-------------------------|
--------------------------|--------------------------|-------------------------|
--------------------------|--------------------------|-------------------------|
--3--------3--------3-----|--------5--------5--------|--5--------7--8----7~----|
--------------------------|--------------------------|-------------------------|
-----0--1-----0--1-----0--|--0--3-----0--3-----0--3--|-----0--5----------------|

  W                   W                   W                   W
-------------------|-------------------|-------------------|-------------------|
-------------------|-------------------|-------------------|-------------------|
-------------------|-------------------|-------------------|-------------------|
--0----------------|--L----------------|--3----------------|--L----------------|
--0----------------|--L----------------|--3----------------|--L----------------|
--0----------------|--L----------------|--3----------------|--L----------------|

VERSE 1
bar 3 on line)

                                                      PM PM PM PM
  W                   W                   E  E  E  E  S  S  S  S  E  E
-------------------|-------------------|--------------------------------|
-------------------|-------------------|--------------------------------|
-------------------|-------------------|--------------------------------|
--7----------------|--L----------------|--------------------------------|
--7----------------|--L----------------|--0-----0-----0--0--0--0--0-----|
--7----------------|--L----------------|--0-----0-----0--0--0--0--0-----|

                                  PM PM PM PM
  W                   E  E  E  E  S  S  S  S  E  E     E  E  E  E  E  E  E  E
-------------------|--------------------------------|--------------------------|
-------------------|--------------------------------|--------------------------|
-------------------|--------------------------------|--------------------------|
-------------------|-----------------------------3--|--L--3--3--7--L--7--7--7--|
-------------------|--0-----0-----0--0--0--0--0--3--|--L--3--3--7--L--7--7--7--|
-------------------|--0-----0-----0--0--0--0--0--3--|--L--3--3--7--L--7--7--7--|

              PM PM PM PM
  E  E  E  E  S  S  S  S  E  E     W
--------------------------------|-------------------|
--------------------------------|-------------------|
--------------------------------|-------------------|
--------------------------------|-------------------|
--0-----0-----0--0--0--0--0-----|-------------------|
--0-----0-----0--0--0--0--0-----|-------------------|

              PM PM PM PM
  E  E  E  E  S  S  S  S  E  E     E  E  E  E  E  E  E  E
--------------------------------|--------------------------|
--------------------------------|--------------------------|
--------------------------------|--------------------------|
-----------------------------3--|--L--3--3--7--L--7--7--7--|
--0-----0-----0--0--0--0--0--3--|--L--3--3--7--L--7--7--7--|
--0-----0-----0--0--0--0--0--3--|--L--3--3--7--L--7--7--7--|

              PM PM PM PM               TP
  E  E  E  E  S  S  S  S  E   E     E   H.           E
---------------------------------|----------------------|
---------------------------------|----------------------|
-----------------------------10--|--L--10------------L--|
---------------------------------|----------------------|
--0-----0-----0--0--0--0--0------|----------------------|
--0-----0-----0--0--0--0--0------|----------------------|

              PM PM PM PM
  E  E  E  E  S  S  S  S  E  E     E  E  E  E  E  E  E  E
--------------------------------|--------------------------|
--------------------------------|--------------------------|
--------------------------------|--------------------------|
-----------------------------3--|--L--3--3--7--L--7--7--7--|
--0-----0-----0--0--0--0--0--3--|--L--3--3--7--L--7--7--7--|
--0-----0-----0--0--0--0--0--3--|--L--3--3--7--L--7--7--7--|

              PM PM PM PM               TP
  E  E  E  E  S  S  S  S  E   E     E   H.            E
---------------------------------|-----------------------|
---------------------------------|-----------------------|
-----------------------------10--|--L--10-------------L--|
---------------------------------|-----------------------|
--0-----0-----0--0--0--0--0------|-----------------------|
--0-----0-----0--0--0--0--0------|-----------------------|

              PM PM PM PM
  E  E  E  E  S  S  S  S  E  E     E  E  E  E  E  E  E  E
--------------------------------|--------------------------|
--------------------------------|--------------------------|
--------------------------------|--------------------------|
-----------------------------3--|--L--3--3--7--L--7--7--7--|
--0-----0-----0--0--0--0--0--3--|--L--3--3--7--L--7--7--7--|
--0-----0-----0--0--0--0--0--3--|--L--3--3--7--L--7--7--7--|

PRE CHORUS

  E  E  E  E  E  E  E  E     E  E  E  E  E  E  E  E
--------------------------|--------------------------|
--------------------------|--------------------------|
--------------------------|--------------------------|
--0--7--8--0--5--7--0--3--|--5--0--2--3--0--2--5--2--|
--------------------------|--------------------------|
--------------------------|--------------------------|

  E  E  E  E  E  E  E  E     E  E  E  E  B           E  E  E  E  E  E  E  E
--------------------------|-----------------------|--------------------------|
--------------------------|-----------------------|--------------------------|
--------------------------|-----------------------|--------------------------|
--0--7--8--0--5--7--0--3--|--5--0--2--3-----------|--0--7--8--0--5--7--0--3--|
--------------------------|-----------------------|--------------------------|
--------------------------|-----------------------|--------------------------|

  E  E  E  E  S  S  S  S  S  S  S  S    E  E  E  E  E  E  E  E
-------------------------------------|--------------------------|
-------------------------------------|--------------------------|
-------------------------------------|--------------------------|
--5--0--2--3--2h-5p-2h-5p-2h-5p-2h-5-|--0--7--8--0--5--7--0--3--|
-------------------------------------|--------------------------|
-------------------------------------|--------------------------|

CHORUS
bar 2 on line)

                 PH                                           PM PM PM PM
  E  E  E  E     H            Q.     Q.     Q       E  Q.     E  E  E  E
---------------------------|---------------------|------------------------|
---------------------------|---------------------|------------------------|
---------------------------|---------------------|------------------------|
--5--0--2--3--<>12~--------|--3-------------7----|--L---------------------|
---------------------------|--3------0------7----|--L--0------0--0--0--0--|
---------------------------|--3------0------7----|--L--0------0--0--0--0--|

                                  PM PM PM PM    PM PM    PM PM    PM PM
  Q.     Q.     Q       E  Q.     E  E  E  E     E  E  E  E  E  E  E  E
---------------------|------------------------|--------------------------|
---------------------|------------------------|--------------------------|
---------------------|------------------------|--------------------------|
--3-------------7----|--L---------------------|--------3--------3--------|
--3------0------7----|--L--0------0--0--0--0--|--------------------------|
--3------0------7----|--L--0------0--0--0--0--|--0--1-----0--1-----0--1--|

     PM PM    PM PM    PM    PM PM    PM PM    PM PM       PM PM
  E  E  E  E  E  E  E  E     E  E  E  E  E  E  E  E     E  E  E  E  Q    Q
--------------------------|--------------------------|-------------------------|
--------------------------|--------------------------|-------------------------|
--------------------------|--------------------------|-------------------------|
--3--------3--------3-----|--------5--------5--------|--5--------7--8----7~----|
--------------------------|--------------------------|-------------------------|
-----0--1-----0--1-----0--|--0--3-----0--3-----0--3--|-----0--5----------------|

                                  PM PM PM PM
  Q.     Q.     Q       E  Q.     E  E  E  E     Q.     Q.     Q
---------------------|------------------------|---------------------|
---------------------|------------------------|---------------------|
---------------------|------------------------|---------------------|
--3-------------7----|--L---------------------|--3-------------7----|
--3------0------7----|--L--0------0--0--0--0--|--3------0------7----|
--3------0------7----|--L--0------0--0--0--0--|--3------0------7----|

            PM PM PM PM    PM PM    PM PM    PM PM       PM PM    PM PM    PM
  E  Q.     E  E  E  E     E  E  E  E  E  E  E  E     E  E  E  E  E  E  E  E
------------------------|--------------------------|--------------------------|
------------------------|--------------------------|--------------------------|
------------------------|--------------------------|--------------------------|
--L---------------------|--------3--------3--------|--3--------3--------3-----|
--L--0------0--0--0--0--|--------------------------|--------------------------|
--L--0------0--0--0--0--|--0--1-----0--1-----0--1--|-----0--1-----0--1-----0--|

  PM PM    PM PM    PM PM       PM PM
  E  E  E  E  E  E  E  E     E  E  E  E  Q    Q
--------------------------|-------------------------|
--------------------------|-------------------------|
--------------------------|-------------------------|
--------5--------5--------|--5--------7--8----7~----|
--------------------------|-------------------------|
--0--3-----0--3-----0--3--|-----0--5----------------|

VERSE 2

              PM PM PM PM
  E  E  E  E  S  S  S  S  E  E     W
--------------------------------|-------------------|
--------------------------------|-------------------|
--------------------------------|-------------------|
--------------------------------|-------------------|
--0-----0-----0--0--0--0--0-----|-------------------|
--0-----0-----0--0--0--0--0-----|-------------------|

              PM PM PM PM
  E  E  E  E  S  S  S  S  E  E     E  E  E  E  E  E  E  E
--------------------------------|--------------------------|
--------------------------------|--------------------------|
--------------------------------|--------------------------|
-----------------------------3--|--L--3--3--7--L--7--7--7--|
--0-----0-----0--0--0--0--0--3--|--L--3--3--7--L--7--7--7--|
--0-----0-----0--0--0--0--0--3--|--L--3--3--7--L--7--7--7--|

              PM PM PM PM
  E  E  E  E  S  S  S  S  E  E     W
--------------------------------|-------------------|
--------------------------------|-------------------|
--------------------------------|-------------------|
--------------------------------|-------------------|
--0-----0-----0--0--0--0--0-----|-------------------|
--0-----0-----0--0--0--0--0-----|-------------------|

              PM PM PM PM
  E  E  E  E  S  S  S  S  E  E     E  E  E  E  E  E  E  E
--------------------------------|--------------------------|
--------------------------------|--------------------------|
--------------------------------|--------------------------|
-----------------------------3--|--L--3--3--7--L--7--7--7--|
--0-----0-----0--0--0--0--0--3--|--L--3--3--7--L--7--7--7--|
--0-----0-----0--0--0--0--0--3--|--L--3--3--7--L--7--7--7--|

              PM PM PM PM               TP
  E  E  E  E  S  S  S  S  E   E     E   H.           E
---------------------------------|----------------------|
---------------------------------|----------------------|
-----------------------------10--|--L--10------------L--|
---------------------------------|----------------------|
--0-----0-----0--0--0--0--0------|----------------------|
--0-----0-----0--0--0--0--0------|----------------------|

              PM PM PM PM
  E  E  E  E  S  S  S  S  E  E     E  E  E  E  E  E  E  E
--------------------------------|--------------------------|
--------------------------------|--------------------------|
--------------------------------|--------------------------|
-----------------------------3--|--L--3--3--7--L--7--7--7--|
--0-----0-----0--0--0--0--0--3--|--L--3--3--7--L--7--7--7--|
--0-----0-----0--0--0--0--0--3--|--L--3--3--7--L--7--7--7--|

              PM PM PM PM               TP
  E  E  E  E  S  S  S  S  E   E     E   H.            E
---------------------------------|-----------------------|
---------------------------------|-----------------------|
-----------------------------10--|--L--10-------------L--|
---------------------------------|-----------------------|
--0-----0-----0--0--0--0--0------|-----------------------|
--0-----0-----0--0--0--0--0------|-----------------------|

              PM PM PM PM
  E  E  E  E  S  S  S  S  E  E     E  E  E  E  E  E  E  E
--------------------------------|--------------------------|
--------------------------------|--------------------------|
--------------------------------|--------------------------|
-----------------------------3--|--L--3--3--7--L--7--7--7--|
--0-----0-----0--0--0--0--0--3--|--L--3--3--7--L--7--7--7--|
--0-----0-----0--0--0--0--0--3--|--L--3--3--7--L--7--7--7--|

PRE CHORUS

  E  E  E  E  E  E  E  E     E  E  E  E  E  E  E  E
--------------------------|--------------------------|
--------------------------|--------------------------|
--------------------------|--------------------------|
--0--7--8--0--5--7--0--3--|--5--0--2--3--0--2--5--2--|
--------------------------|--------------------------|
--------------------------|--------------------------|

  E  E  E  E  E  E  E  E     E  E  E  E  B           E  E  E  E  E  E  E  E
--------------------------|-----------------------|--------------------------|
--------------------------|-----------------------|--------------------------|
--------------------------|-----------------------|--------------------------|
--0--7--8--0--5--7--0--3--|--5--0--2--3-----------|--0--7--8--0--5--7--0--3--|
--------------------------|-----------------------|--------------------------|
--------------------------|-----------------------|--------------------------|

  E  E  E  E  S  S  S  S  S  S  S  S    E  E  E  E  E  E  E  E
-------------------------------------|--------------------------|
-------------------------------------|--------------------------|
-------------------------------------|--------------------------|
--5--0--2--3--2h-5p-2h-5p-2h-5p-2h-5-|--0--7--8--0--5--7--0--3--|
-------------------------------------|--------------------------|
-------------------------------------|--------------------------|

CHORUS
bar 2 on line)

                                                            PM PM PM PM
  E  E  E  E   H            Q.     Q.     Q       E  Q.     E  E  E  E
-------------------------|---------------------|------------------------|
-------------------------|---------------------|------------------------|
-------------------------|---------------------|------------------------|
--5--0--2--3-------------|--3-------------7----|--L---------------------|
--------------12\--------|--3------0------7----|--L--0------0--0--0--0--|
--------------12\--------|--3------0------7----|--L--0------0--0--0--0--|

                                  PM PM PM PM    PM PM    PM PM    PM PM
  Q.     Q.     Q       E  Q.     E  E  E  E     E  E  E  E  E  E  E  E
---------------------|------------------------|--------------------------|
---------------------|------------------------|--------------------------|
---------------------|------------------------|--------------------------|
--3-------------7----|--L---------------------|--------3--------3--------|
--3------0------7----|--L--0------0--0--0--0--|--------------------------|
--3------0------7----|--L--0------0--0--0--0--|--0--1-----0--1-----0--1--|

     PM PM    PM PM    PM    PM PM    PM PM    PM PM       PM PM
  E  E  E  E  E  E  E  E     E  E  E  E  E  E  E  E     E  E  E  E  Q    Q
--------------------------|--------------------------|-------------------------|
--------------------------|--------------------------|-------------------------|
--------------------------|--------------------------|-------------------------|
--3--------3--------3-----|--------5--------5--------|--5--------7--8----7~----|
--------------------------|--------------------------|-------------------------|
-----0--1-----0--1-----0--|--0--3-----0--3-----0--3--|-----0--5----------------|

                                  PM PM PM PM
  Q.     Q.     Q       E  Q.     E  E  E  E     Q.     Q.     Q
---------------------|------------------------|---------------------|
---------------------|------------------------|---------------------|
---------------------|------------------------|---------------------|
--3-------------7----|--L---------------------|--3-------------7----|
--3------0------7----|--L--0------0--0--0--0--|--3------0------7----|
--3------0------7----|--L--0------0--0--0--0--|--3------0------7----|

            PM PM PM PM    PM PM    PM PM    PM PM       PM PM    PM PM    PM
  E  Q.     E  E  E  E     E  E  E  E  E  E  E  E     E  E  E  E  E  E  E  E
------------------------|--------------------------|--------------------------|
------------------------|--------------------------|--------------------------|
------------------------|--------------------------|--------------------------|
--L---------------------|--------3--------3--------|--3--------3--------3-----|
--L--0------0--0--0--0--|--------------------------|--------------------------|
--L--0------0--0--0--0--|--0--1-----0--1-----0--1--|-----0--1-----0--1-----0--|

SOLO 1
MATT TUCK (bar 3 on line)

  PM PM    PM PM    PM PM       PM PM
  E  E  E  E  E  E  E  E     E  E  E  E  Q    Q        H        Q.      E
--------------------------|-------------------------|-----------------------|
--------------------------|-------------------------|-----------------------|
--------------------------|-------------------------|------------------/7~--|
--------5--------5--------|--5--------7--8----7~----|-----------------------|
--------------------------|-------------------------|-----------------------|
--0--3-----0--3-----0--3--|-----0--5----------------|-----------------------|

                       Harmony part
  W                    H            Q.      E      W
-------------------|----------------------------|-------------------|
-------------------|----------------------------|-------------------|
--L----------------|--14-----------12-------9~--|--L----------------|
-------------------|--15-----------14------10---|-------------------|
-------------------|----------------------------|-------------------|
-------------------|----------------------------|-------------------|

   S   S  S  S  S   S  S   S  S  S  S   S  S   S  S   S
--17p-13----13-17p-13-17p-13----13-17p-13-17p-13-17p-13-|
---------15------------------15-------------------------|
--------------------------------------------------------|
--------------------------------------------------------|
--------------------------------------------------------|
--------------------------------------------------------|

SOLO 2
MATT TUCK (bar 2 on line)

   Q     Q    Q    Q        E   E   E   E   E   E   E   E
------------------------|----------------------------------|
--18--------------------|----------------------------------|
--20b----L----L----L----|--------------12--------------12--|
------------------------|------12--15------15--12--15------|
------------------------|--15------------------------------|
------------------------|----------------------------------|

   W                    E  E  E  E   E  Q.        E  E   E  E   E   E  E   E
---------------------|-------------------------|------------------------------|
---------------------|-------------------------|------------------------------|
--14~----------------|--------9-----10--L------|--L--9--10--9--12--10--9--10--|
---------------------|--8--8-----8-------------|------------------------------|
---------------------|-------------------------|------------------------------|
---------------------|-------------------------|------------------------------|

  E  E  E  E   E  Q.        E  E   E  E   E   E  E   E
-------------------------|------------------------------|
-------------------------|------------------------------|
--------9-----10--L------|--L--9--10--9--12--10--9--10--|
--7--7-----7-------------|------------------------------|
-------------------------|------------------------------|
-------------------------|------------------------------|

  E  E  E  E   E  Q.        E  E   E  E   E   E  E   E
-------------------------|------------------------------|
-------------------------|------------------------------|
--------9-----10--L------|--L--9--10--9--12--10--9--10--|
--8--8-----8-------------|------------------------------|
-------------------------|------------------------------|
-------------------------|------------------------------|

  E  E  E  E   E  Q.         E   E   E   E   E  E   E   E
-------------------------|---------------------------------|
-------------------------|--13--11--10---------------------|
--------9-----10--L------|--------------12--10--9----------|
--7--7-----7-------------|-------------------------12--10--|
-------------------------|---------------------------------|
-------------------------|---------------------------------|

DUAL SOLO

  E  E  E  E   E  Q.        E  E   E  E   E   E  E   E
-------------------------|------------------------------|
-------------------------|------------------------------|
--------9-----10--L------|--L--9--10--9--12--10--9--10--|
--8--8-----8-------------|------------------------------|
-------------------------|------------------------------|
-------------------------|------------------------------|

  E  E  E  E   E  Q.        E  E   E  E   E   E  E   E
-------------------------|------------------------------|
-------------------------|------------------------------|
--------9-----10--L------|--L--9--10--9--12--10--9--10--|
--7--7-----7-------------|------------------------------|
-------------------------|------------------------------|
-------------------------|------------------------------|

  E  E  E  E   E  Q.        E  E   E  E   E   E  E   E
-------------------------|------------------------------|
-------------------------|------------------------------|
--------9-----10--L------|--L--9--10--9--12--10--9--10--|
--8--8-----8-------------|------------------------------|
-------------------------|------------------------------|
-------------------------|------------------------------|

  E  E  E  E   E  Q.         E   E   E   E   E  E   E   E
-------------------------|---------------------------------|
-------------------------|--13--11--10---------------------|
--------9-----10--L------|--------------12--10--9----------|
--7--7-----7-------------|-------------------------12--10--|
-------------------------|---------------------------------|
-------------------------|---------------------------------|

POST SOLO

  E  E  E  E   E  Q.        E  E   E  E   E   E  E   E
-------------------------|------------------------------|
-------------------------|------------------------------|
--------9-----10--L------|--L--9--10--9--12--10--9--10--|
--8--8-----8-------------|------------------------------|
-------------------------|------------------------------|
-------------------------|------------------------------|

  E  E  E  E   E  Q.        E  E   E  E   E   E  E   E
-------------------------|------------------------------|
-------------------------|------------------------------|
--------9-----10--L------|--L--9--10--9--12--10--9--10--|
--7--7-----7-------------|------------------------------|
-------------------------|------------------------------|
-------------------------|------------------------------|

  E  E  E  E   E  Q.        E  E   E  E   E   E  E   E
-------------------------|------------------------------|
-------------------------|------------------------------|
--------9-----10--L------|--L--9--10--9--12--10--9--10--|
--8--8-----8-------------|------------------------------|
-------------------------|------------------------------|
-------------------------|------------------------------|

  E  E  E  E   E  Q.         E   E   E   E   E  E   E   E
-------------------------|---------------------------------|
-------------------------|--13--11--10---------------------|
--------9-----10--L------|--------------12--10--9----------|
--7--7-----7-------------|-------------------------12--10--|
-------------------------|---------------------------------|
-------------------------|---------------------------------|

   E  E   E   E  E   E   E  E      E   E  E   E   E  E   E  E
-------------------------------|-------------------------------|
-------------------------------|-------------------------------|
--10--9------12--9------10--9--|------12--9------10--9--10--9--|
---------10---------10---------|--10---------10----------------|
-------------------------------|-------------------------------|
-------------------------------|-------------------------------|

   E  E   E   E  E   E   E  E      E   E   E   E   E  E   E  E
-------------------------------|--------------------------------|
-------------------------------|------13--10--------------------|
--10--9------12--9------10--9--|------------------10--9--10--9--|
---------10---------10---------|--10----------10----------------|
-------------------------------|--------------------------------|
-------------------------------|--------------------------------|

   E  E   E   E  E   E   E  E      E   E  E   E   E  E   E  E
-------------------------------|-------------------------------|
-------------------------------|-------------------------------|
--10--9------12--9------10--9--|------12--9------10--9--10--9--|
---------10---------10---------|--10---------10----------------|
-------------------------------|-------------------------------|
-------------------------------|-------------------------------|

   E  E   E   E   E   E   E  E      E   E  E   E   E  E   E  E
--------------------------------|-------------------------------|
-------------13--10-------------|-------------------------------|
--10--9------------------10--9--|------12--9------10--9--10--9--|
---------10----------10---------|--10---------10----------------|
--------------------------------|-------------------------------|
--------------------------------|-------------------------------|

CHORUS
bar 3 on line)

  E  E  E  E  E  E  E  E     E  E  E  E  H           Q.     Q.     Q
--------------------------|-----------------------|---------------------|
--------------------------|-----------------------|---------------------|
--------------------------|-----------------------|---------------------|
--0--7--8--0--5--7--0--3--|--5--0--2--3-----------|--3-------------7----|
--------------------------|-----------------------|--3------0------7----|
--------------------------|-----------------------|--3------0------7----|

            PM PM PM PM                                    PM PM PM PM
  E  Q.     E  E  E  E     Q.     Q.     Q       E  Q.     E  E  E  E
------------------------|---------------------|------------------------|
------------------------|---------------------|------------------------|
------------------------|---------------------|------------------------|
--L---------------------|--3-------------7----|--L---------------------|
--L--0------0--0--0--0--|--3------0------7----|--L--0------0--0--0--0--|
--L--0------0--0--0--0--|--3------0------7----|--L--0------0--0--0--0--|

  PM PM    PM PM    PM PM       PM PM    PM PM    PM
  E  E  E  E  E  E  E  E     E  E  E  E  E  E  E  E
--------------------------|--------------------------|
--------------------------|--------------------------|
--------------------------|--------------------------|
--------3--------3--------|--3--------3--------3-----|
--------------------------|--------------------------|
--0--1-----0--1-----0--1--|-----0--1-----0--1-----0--|

  PM PM    PM PM    PM PM       PM PM
  E  E  E  E  E  E  E  E     E  E  E  E  Q    Q        Q.     Q.     Q
--------------------------|-------------------------|---------------------|
--------------------------|-------------------------|---------------------|
--------------------------|-------------------------|---------------------|
--------5--------5--------|--5--------7--8----7~----|--3-------------7----|
--------------------------|-------------------------|--3------0------7----|
--0--3-----0--3-----0--3--|-----0--5----------------|--3------0------7----|

            PM PM PM PM                                    PM PM PM PM
  E  Q.     E  E  E  E     Q.     Q.     Q       E  Q.     E  E  E  E
------------------------|---------------------|------------------------|
------------------------|---------------------|------------------------|
------------------------|---------------------|------------------------|
--L---------------------|--3-------------7----|--L---------------------|
--L--0------0--0--0--0--|--3------0------7----|--L--0------0--0--0--0--|
--L--0------0--0--0--0--|--3------0------7----|--L--0------0--0--0--0--|

  PM PM    PM PM    PM PM       PM PM    PM PM    PM
  E  E  E  E  E  E  E  E     E  E  E  E  E  E  E  E
--------------------------|--------------------------|
--------------------------|--------------------------|
--------------------------|--------------------------|
--------3--------3--------|--3--------3--------3-----|
--------------------------|--------------------------|
--0--1-----0--1-----0--1--|-----0--1-----0--1-----0--|

  PM PM    PM PM    PM PM       PM PM
  E  E  E  E  E  E  E  E     E  E  E  E  Q    Q
--------------------------|-------------------------|
--------------------------|-------------------------|
--------------------------|-------------------------|
--------5--------5--------|--5--------7--8----7~----|
--------------------------|-------------------------|
--0--3-----0--3-----0--3--|-----0--5----------------|

OUTRO

              PM PM PM PM
  E  E  E  E  S  S  S  S  E  E     W
--------------------------------|-------------------||
--------------------------------|-------------------||
--------------------------------|-------------------||
--------------------------------|-------------------||
--0-----0-----0--0--0--0--0-----|-------------------||
--0-----0-----0--0--0--0--0-----|-------------------||

DESCRIPTION OF SYMBOLS

Duration Legend

W - whole
H - half
Q - quarter
E - 8th
S - 16th
T - 32nd
X - 64th
. - note dotted
|-n-|  - n-tuplets

L - tied note
x - dead note
g - grace note
(n) - ghost note
> - accentuded note
NH - natural harmonic
AH - artificial harmonic
TH - tapped harmonic
SH - semi harmonic
PH - pitch harmonic
h - hammer on
p - pull off
b - bend
br - bendRelease
pb - preBend
pbr - preBendRelease
brb - bendReleaseBend
\n/ - tremolo bar dip
\n - tremolo bar dive
-/n - tremolo bar Release up
/n\ - tremolo bar inverted dip
/n - tremolo bar return
-\n - tremolo bar Release down
S - shift slide
s - legato slide
/ -  slide into from below or out of upwards
\ -  slide into from above or out of downwards
~ - vibrato
W - wide vibrato
tr - trill
TP - tremolo picking
T - tapping
S - slap
P - pop
< - fade in
^ - brush up
v - brush down