Children Of Bodom - Everytime I Die Text Guitar Tab

Learn the song with the online tablature player
Everytime I Die

                                                               Children of Bodom
Alexi Laiho

     W                    W                    W
D||-------------------|--------------------|--12----------------|
A||--3----------------|--/5----------------|--------------------|
F||--2----------------|--/4----------------|--------------------|
C||-------------------|--------------------|--------------------|
G||-------------------|--------------------|--------------------|
D||-------------------|--------------------|--------------------|

     \1/                   NH
     W                     W                    W
----------------------|---------------------|--------------------|
----------------------|--<>3----------------|--/5----------------|
--<>24----------------|--<>2----------------|--/4----------------|
----------------------|---------------------|--------------------|
----------------------|---------------------|--------------------|
----------------------|---------------------|--------------------|

                            NH
   H         H              W
----------------------|-----------------------|
--12--------10--------|-----------------------|
--12--------11--------|--<>15b----------------|
----------------------|-----------------------|
----------------------|-----------------------|
----------------------|-----------------------|

  PM PM PM PM PM PM PM PM PM PM PM PM    PM PM PM PM PM PM PM PM PM PM
  E  S  S  S  S  S  S  S  E  S  E  E     E  S  S  S  S  S  S  S  E  S   Q
--------------------------------------|---------------------------------------|
--------------------------------------|---------------------------------------|
--------------------------------------|--------------------------------(7)----|
--------------------------------------|---------------------------------7-----|
--------------------------------------|---------------------------------5-----|
--0--0--0--0--0--0--0--0--0--0--0--0--|--0--0--0--0--0--0--0--0--0--0---------|

  PM PM PM PM PM PM PM PM PM PM PM PM
  E  S  S  S  S  S  S  S  E  S  E  E
--------------------------------------|
--------------------------------------|
--------------------------------------|
--------------------------------------|
--------------------------------------|
--0--0--0--0--0--0--0--0--0--0--0--0--|

  PM PM PM PM PM PM PM
  E  S  S  S  S  S  S   S S  S  S  S  S  S  S
----------------------------------------------|
-------------------------------10-12-10-------|
-----------------------12-9-12----------12-11-|
----------------------------------------------|
----------------------------------------------|
--0--0--0--0--0--0--0-------------------------|

       PM PM PM PM PM PM PM PM PM PM PM
   E   S  S  S  S  S  S  S  E  S  E  E
----------------------------------------|
----------------------------------------|
--12~-----------------------------------|
----------------------------------------|
----------------------------------------|
-------0--0--0--0--0--0--0--0--0--0--0--|

  PM PM PM PM PM PM PM PM PM PM           PM PM PM PM PM PM PM PM PM PM PM PM
  E  S  S  S  S  S  S  S  E  S   Q        E  S  S  S  S  S  S  S  E  S  E  E
---------------------------------------|--------------------------------------|
---------------------------------------|--------------------------------------|
--------------------------------(7)----|--------------------------------------|
---------------------------------7-----|--------------------------------------|
---------------------------------5-----|--------------------------------------|
--0--0--0--0--0--0--0--0--0--0---------|--0--0--0--0--0--0--0--0--0--0--0--0--|

   |--3--|  |---3--|  |--3--|  |---3--|  |--3--|  |---3--|  |--3--|  |---3--|
   S  S  S  S   S  S  S  S  S  S   S  S  S  S  S  S   S  S  S  S  S  S   S  S
--------12-17p-12----------12-15p-12----------12-17p-12----------14-17p-14----|
-----13-----------13----13-----------13----13-----------13----15-----------15-|
--14-----------------14-----------------14-----------------14-----------------|
------------------------------------------------------------------------------|
------------------------------------------------------------------------------|
------------------------------------------------------------------------------|

                                          PM PM    PM PM
  E  E  E  E  E  E   E  E     E  E  E  E  S  S  E  S  S  E
---------------------------|--------------------------------|
---------------------------|--------------------------------|
--9------------------------|--------------------------------|
-----9--9--9--7------------|-----7--5--4--------5--------4--|
-----------------9--10--7--|--5-----------3--3-----5--5-----|
---------------------------|--------------------------------|

                                          PM PM    PM PM
  E  E  E  E  E  E   E  E     E  E  E  E  S  S  E  S  S  E
---------------------------|--------------------------------|
---------------------------|--------------------------------|
--9------------------------|--------------------------------|
-----9--9--9--7------------|-----7--5--4--------5--------7--|
-----------------9--10--7--|--5-----------3--3--3--5--5--5--|
---------------------------|--------------------------------|

                                                     PM PM     PM PM
   E   E   E   E   E   E   E  E      E   E   E   E   S  S  E   S  S  E
--12-----------------------------|--------------------------------------|
------12--12--12--10-------------|------10------------------------------|
----------------------11--12--9--|----------12--11--------12--------14--|
---------------------------------|--12--------------10-10-10--12-12-12--|
---------------------------------|--------------------------------------|
---------------------------------|--------------------------------------|

   E   E   E   E   E   E   E  E
--12-----------------------------|
------12--12--12--10-------------|
----------------------11--12--9--|
---------------------------------|
---------------------------------|
---------------------------------|

                   |--3--|  |--3--|  |--3--|  |--3--|
   E   E   E   E   S  S  S  S  S  S  S  S  S  S  S  S
---------------------------17-19-20----------19-20-22-|
------10----------17-19-20----------19-20-22----------|
----------12--11--------------------------------------|
--12--------------------------------------------------|
------------------------------------------------------|
------------------------------------------------------|

   Delay...
   Q       E   Q      E   Q         E   Q      E   Q      E   E
--22b~--------22b~-------22b~----|-----22b~-------22b~-------22b~--|
---------------------------------|---------------------------------|
---------------------------------|---------------------------------|
---------------------------------|---------------------------------|
---------------------------------|---------------------------------|
---------------------------------|---------------------------------|

                         PM PM    PM PM       PM PM
  W                   E  E  E  E  S  S    E   S  S    E
-------------------|--------------------------------------|
-------------------|--------------------------------------|
-------------------|--------------------<>5~--------<>7~--|
-------------------|--4--------4--------------------------|
-------------------|--2--2--2--2--3--3--------5--5--------|
-------------------|--------------------------------------|

     PM PM    PM PM PM PM PM PM PM       PM PM    PM PM PM
  E  E  E  E  E  S  S  S  S  S  S     E  E  E  E  E  S  S  Q
-----------------------------------|----------------------------|
-----------------------------------|----------------------------|
-----------------------------------|----------------------------|
-----------------------------------|-----------------------5----|
--2--------2-----------------------|--2--------2-----------3----|
--0--0--0--0--0--0--0--0--0--0--0--|--0--0--0--0--0--0--0-------|

     PM PM    PM PM PM PM            PM PM    PM PM       PM PM
                 |--3--|
  E  E  E  E  E  S  S  S  Q       E  E  E  E  S  S    E   S  S    E
-------------------------------|--------------------------------------|
-------------------------------|--------------------------------------|
-------------------------------|--------------------<>5~--------<>7~--|
-----------9--------------7----|--4--------4--------------------------|
--2--------7--------------5----|--2--2--2--2--3--3--------5--5--------|
--0--0--0--0--0--0--0--0-------|--------------------------------------|

     PM PM    PM PM PM PM PM PM PM       PM PM    PM PM PM
  E  E  E  E  E  S  S  S  S  S  S     E  E  E  E  E  S  S  Q
-----------------------------------|----------------------------|
-----------------------------------|----------------------------|
-----------------------------------|----------------------------|
-----------------------------------|-----------9-----------5----|
--2--------2-----------------------|--2--------7-----------3----|
--0--0--0--0--0--0--0--0--0--0--0--|--0--0--0--0--0--0--0-------|

     PM PM    PM PM PM PM            PM PM    PM PM       PM PM
                 |--3--|
  E  E  E  E  E  S  S  S  Q       E  E  E  E  S  S    E   S  S    E
-------------------------------|--------------------------------------|
-------------------------------|--------------------------------------|
-------------------------------|--------------------<>5~--------<>7~--|
--------------------------7----|--4--------4--------------------------|
--2--------2--------------5----|--2--2--2--2--3--3--------5--5--------|
--0--0--0--0--0--0--0--0-------|--------------------------------------|

     PM PM    PM PM PM PM PM PM PM       PM PM    PM PM PM
  E  E  E  E  E  S  S  S  S  S  S     E  E  E  E  E  S  S  Q
-----------------------------------|----------------------------|
-----------------------------------|----------------------------|
-----------------------------------|----------------------------|
-----------------------------------|-----------------------5----|
--2--------2-----------------------|--2--------2-----------3----|
--0--0--0--0--0--0--0--0--0--0--0--|--0--0--0--0--0--0--0-------|

     PM PM    PM PM PM PM            PM PM    PM PM
                 |--3--|
  E  E  E  E  E  S  S  S  Q       E  E  E  E  E  E  Q
-------------------------------|-------------------------|
-------------------------------|-------------------------|
-------------------------------|-------------------------|
-----------9--------------7----|-------------------------|
--2--------7--------------5----|--3--------3--------5----|
--0--0--0--0--0--0--0--0-------|--1--1--1--1--1--1--3----|

                                             PM PM      PM PM
   E  E  E  E  E  E   E  E      E  E   E  E  S  S   E   S  S  E
----------------------------|------------------------------------|
--10------------------------|------------------------------------|
------9--9--9--7------------|------7-----------------------------|
------------------9--10--7--|---------10--9--------10--------12--|
----------------------------|--10------------8--8---8--10-10-10--|
----------------------------|------------------------------------|

                                             PM PM      PM PM
   E  E  E  E  E  E   E  E      E  E   E  E  S  S   E   S  S  E
----------------------------|------------------------------------|
--10------------------------|------------------------------------|
------9--9--9--7------------|------7-----------------------------|
------------------9--10--7--|---------10--9--------10--------12--|
----------------------------|--10------------8--8---8--10-10-10--|
----------------------------|------------------------------------|

                                             PM PM      PM PM
   E  E  E  E  E  E   E  E      E  E   E  E  S  S   E   S  S  E
----------------------------|------------------------------------|
--10------------------------|------------------------------------|
------9--9--9--7------------|------7-----------------------------|
------------------9--10--7--|---------10--9--------10--------12--|
----------------------------|--10------------8--8---8--10-10-10--|
----------------------------|------------------------------------|

   |--3--|  |---3--|  |--3--|  |---3--|  |--3--|  |---3--|  |--3--|  |---3--|
   S  S  S  S   S  S  S  S  S  S   S  S  S  S  S  S   S  S  S  S  S  S   S  S
--------17-22p-17----------17-20p-17----------17-22p-17----------19-22p-19----|
-----18-----------18----18-----------18----18-----------18----20-----------20-|
--19-----------------17-----------------19-----------------19-----------------|
------------------------------------------------------------------------------|
------------------------------------------------------------------------------|
------------------------------------------------------------------------------|

                    \1/
   E.     S  Q      H             E  E  E   E  E  E  E  E
--19br---17-19----(19)--------|----------------7--------7--|
------------------------------|--10-----8--10--------8-----|
------------------------------|------9------------9--------|
------------------------------|----------------------------|
------------------------------|----------------------------|
------------------------------|----------------------------|

  PM PM            PM
  S  S   E  E   E  E  E  E  E      E  E  E   E  E  E  E  E
-------------------------7-----|----------------7--------7--|
--------10--8--10-----8--7--8--|--10-----8--10--------8-----|
--9--9---9--7---9--9--7-----7--|------9------------9--------|
-------------------------------|----------------------------|
-------------------------------|----------------------------|
-------------------------------|----------------------------|

  PM PM            PM
  S  S   E  E   E  E  E  E  E      E  E  E   E  E  E  E  E
-------------------------7-----|----------------7--------7--|
--------10--8--10-----8--7--8--|--10-----8--10--------8-----|
--9--9---9--7---9--9--7-----7--|------9------------9--------|
-------------------------------|----------------------------|
-------------------------------|----------------------------|
-------------------------------|----------------------------|

  E   E   E  E   S  S  S  S  S  S  S  S     W
--8----------8-----------12-13-15-13----|--12~----------------|
---------10-----12-13-15-------------15-|---------------------|
-----10---------------------------------|---------------------|
----------------------------------------|---------------------|
----------------------------------------|---------------------|
----------------------------------------|---------------------|

  PM PM PM PM PM PM PM PM PM PM           PM PM PM PM PM PM PM PM PM PM PM PM
  E  S  S  S  S  S  S  S  E  S   Q        E  S  S  S  S  S  S  S  E  S  E  E
---------------------------------------|--------------------------------------|
---------------------------------------|--------------------------------------|
--------------------------------(7)----|--------------------------------------|
---------------------------------7-----|--------------------------------------|
---------------------------------5-----|--------------------------------------|
--0--0--0--0--0--0--0--0--0--0---------|--0--0--0--0--0--0--0--0--0--0--0--0--|

  PM PM PM PM PM    PM PM         PM     PM
  E  S  S  S  S  E  S  S  E  Q    S  E.  S  E.
------------------------------------------------|
------------------------------------------------|
------------------------------------------------|
-----------------7--------7--7-------5------7---|
-----------------5--5--5--5--5----3--3---5--5---|
--0--0--0--0--0---------------------------------|

     PM PM    PM PM PM PM PM PM PM       PM PM    PM PM PM
  E  E  E  E  E  S  S  S  S  S  S     E  E  E  E  E  S  S  Q
-----------------------------------|----------------------------|
-----------------------------------|----------------------------|
-----------------------------------|----------------------------|
-----------------------------------|-----------------------5----|
--2--------2-----------------------|--2--------2-----------3----|
--0--0--0--0--0--0--0--0--0--0--0--|--0--0--0--0--0--0--0-------|

     PM PM    PM PM PM PM            PM PM    PM PM       PM PM
                 |--3--|
  E  E  E  E  E  S  S  S  Q       E  E  E  E  S  S    E   S  S    E
-------------------------------|--------------------------------------|
-------------------------------|--------------------------------------|
-------------------------------|--------------------<>5~--------<>7~--|
-----------9--------------7----|--4--------4--------------------------|
--2--------7--------------5----|--2--2--2--2--3--3--------5--5--------|
--0--0--0--0--0--0--0--0-------|--------------------------------------|

     PM PM    PM PM PM PM PM PM PM       PM PM    PM PM PM
  E  E  E  E  E  S  S  S  S  S  S     E  E  E  E  E  S  S  Q
-----------------------------------|----------------------------|
-----------------------------------|----------------------------|
-----------------------------------|----------------------------|
-----------------------------------|-----------------------5----|
--2--------2-----------------------|--2--------2-----------3----|
--0--0--0--0--0--0--0--0--0--0--0--|--0--0--0--0--0--0--0-------|

     PM PM    PM PM PM PM            PM PM    PM PM       PM PM
                 |--3--|
  E  E  E  E  E  S  S  S  Q       E  E  E  E  S  S    E   S  S    E
-------------------------------|--------------------------------------|
-------------------------------|--------------------------------------|
-------------------------------|--------------------<>5~--------<>7~--|
-----------9--------------7----|--4--------4--------------------------|
--2--------7--------------5----|--2--2--2--2--3--3--------5--5--------|
--0--0--0--0--0--0--0--0-------|--------------------------------------|

   S  S  S  S  S  S S  S  S  S S  S  S  S  S  S
-----------------15-0-15-17-15-0-15----------15-|
--17----17----17--------------------17----17----|
-----16----16--------------------------16-------|
------------------------------------------------|
------------------------------------------------|
------------------------------------------------|

   S  S  S  S  S  S S  S  S  S S  S  S  S  S  S
-----------------15-0-15-17-15-0-15----------15-|
--17----17----17--------------------17----17----|
-----16----16--------------------------16-------|
------------------------------------------------|
------------------------------------------------|
------------------------------------------------|

   S  S  S  S  S  S S  S  S  S S  S  S  S  S  S
-----------------15-0-15-17-15-0-15----------15-|
--17----17----17--------------------17----17----|
-----16----16--------------------------16-------|
------------------------------------------------|
------------------------------------------------|
------------------------------------------------|

   |--3--|  |--3--|  |--3--|
   S  S  S  S  S  S  S  S  S  E   S  S  S  S  S  S S  S
--------------------------------------------------------|
-----------------------------13--12-13-12-10------------|
--14----------------------14-----------------12-11-9----|
-----14----------------14----------------------------12-|
--------15-12----12-15----------------------------------|
--------------12----------------------------------------|

    PM PM PM   PM       PM         PM
  S S  S  S  S S  S S S S   S  S S S   S  S
--------------------------------------------|
--------------------------------------------|
--------------------------------------------|
--9---------------9-9------11-11------12-12-|
--7---------------7-7-------9--9------10-10-|
----0--0--0----0--------0----------0--------|

    PM PM PM   PM       PM       PM               PM PM
  S S  S  S  S S  S S S S  S S S S  S S    Q.     S  S  E.  S E  E
----------------------------------------|----------------------------|
----------------------------------------|----------------------------|
----------------------------------------|----------------------------|
--5---------------5-5------9-9------7-7-|--4------4--5--7---5-L--4S--|
--3-3--3--3----3--3-3---7--7-7---5--5-5-|----------------------------|
----------------------------------------|----------------------------|

                             PM PM PM   PM       PM         PM
  E.  S E  E  Q    Q       S S  S  S  S S  S S S S   S  S S S   S  S
------------------------|--------------------------------------------|
------------------------|--------------------------------------------|
------------------------|--------------------------------------------|
--9---7-L--5--5----4----|--9---------------9-9------11-11------12-12-|
------------------------|--7---------------7-7-------9--9------10-10-|
------------------------|----0--0--0----0--------0----------0--------|

    PM PM PM   PM       PM       PM               PM PM
  S S  S  S  S S  S S S S  S S S S  S S    Q.     S  S  E.  S E  E
----------------------------------------|----------------------------|
----------------------------------------|----------------------------|
----------------------------------------|----------------------------|
--5---------------5-5------9-9------7-7-|--4------4--5--7---5-L--4S--|
--3-3--3--3----3--3-3---7--7-7---5--5-5-|----------------------------|
----------------------------------------|----------------------------|

  E.  S E  E  Q    Q       E    E   E   E   E    E   E    E
------------------------|----------12--19--15s--17-----------|
------------------------|---------------------------17s--13--|
------------------------|--9s--14----------------------------|
--9---7-L--5--5----4----|------------------------------------|
------------------------|------------------------------------|
------------------------|------------------------------------|

   E    E   E    E   E   E   E   E
------------------------17--15------|
--15s--17-----------------------15--|
-----------14s--12------------------|
--------------------12--------------|
------------------------------------|
------------------------------------|

   S  S  S  S  S  S  S  S  S  S  S  S  S  S  S  S
-----------------------------------------------17-|
--16-17-20-16-17-22-16-17-20-16-17-22-16-17-20----|
--------------------------------------------------|
--------------------------------------------------|
--------------------------------------------------|
--------------------------------------------------|

   S  S  S  S  S  S  S  S  S  S  S  S  S  S  S  S
--20----20-19-17----17----17-19-20-19-17----------|
-----18----------20----20----------------20-19-17-|
--------------------------------------------------|
--------------------------------------------------|
--------------------------------------------------|
--------------------------------------------------|

   H           S  S  S  S  S  S  S  S     S  S  S  S  Q.        S  S   E   E
--20br--------17----------------------|-----17-19-20-19br-------L-17h-19--17~--|
-----------------20-17----------------|--18------------------------------------|
-----------------------19-17-------17-|----------------------------------------|
--------------------------------19----|----------------------------------------|
-----------------------------20-------|----------------------------------------|
--------------------------------------|----------------------------------------|

   |---3---|  |---3---|  |---3---|  |---3---|  |---3---|  |---3---|  |---3---|
   S   S   S  S   S   S  S   S   S  S   S   S  S   S   S  S   S   S  S   S   S
--20p-17p-15------------20p-17p-15------------20p-17p-15------------20p-17p-15--
   |---3---|  |---3---|  |---3---|  |---3--|  |---3---|  |---3--|  |---3---|  |-
   S   S   S  S   S   S  S   S   S  S   S  S  S   S   S  S   S  S  S   S   S  S
--20p-17p-15------------15p-12p-10-----------15p-12p-10-----------15p-12p-10----
--------------------|-------------------|-------------------|
--------------------|-------------------|-------------------|
--------------------|-------------------|-------------------|
--7~----------------|-------------------|-------------------|
--------------------|-------------------|-------------------|
--------------------|-------------------|-------------------|

  W                   W                   W                   W
-------------------|-------------------|-------------------|-------------------|
-------------------|-------------------|-------------------|-------------------|
-------------------|-------------------|-------------------|-------------------|
-------------------|-------------------|-------------------|-------------------|
-------------------|-------------------|-------------------|-------------------|
-------------------|-------------------|-------------------|-------------------|

             PM PM PM PM PM         PM         PM     PM
  H        S S  S  S  S  S  E     S S  E  Q    S  E.  S  E.
-------------------------------|-----------------------------|
-------------------------------|-----------------------------|
-------------------------------|-----------------------------|
-------------------------------|-----------------------------|
--3--------5----------------5--|-------5--5-------3------5---|
--1--------3-3--3--3--3--3--3--|----3--3--3----1--1---3--3---|

                               PM PM            PM
   E  E  E   E  E  E  E  E     S  S   E  E   E  E  E  E  E
----------------7--------7--|-------------------------7-----|
--10-----8--10--------8-----|--------10--8--10-----8--7--8--|
------9------------9--------|--9--9---9--7---9--9--7-----7--|
----------------------------|-------------------------------|
----------------------------|-------------------------------|
----------------------------|-------------------------------|

                               PM PM            PM
   E  E  E   E  E  E  E  E     S  S   E  E   E  E  E  E  E
----------------7--------7--|-------------------------7-----|
--10-----8--10--------8-----|--------10--8--10-----8--7--8--|
------9------------9--------|--9--9---9--7---9--9--7-----7--|
----------------------------|-------------------------------|
----------------------------|-------------------------------|
----------------------------|-------------------------------|

   E  E  E   E  E  E  E  E     E   E   E  E   S  S  S  S  S  S  S  S
----------------7--------7--|--8----------8-----------12-13-15-13----|
--10-----8--10--------8-----|---------10-----12-13-15-------------15-|
------9------------9--------|-----10---------------------------------|
----------------------------|----------------------------------------|
----------------------------|----------------------------------------|
----------------------------|----------------------------------------|

                        PM     PM
   W                    S  E.  S  E.  Q    Q
--12~----------------|--------------------------||
---------------------|--------------------------||
---------------------|--------------------------||
---------------------|--------------------------||
---------------------|-----3------5---7---------||
---------------------|--1--1---3--3---5---------||

Duration Legend

W - whole
H - half
Q - quarter
E - 8th
S - 16th
T - 32nd
X - 64th
. - note dotted
|-n-|  - n-tuplets

L - tied note
x - dead note
g - grace note
(n) - ghost note
> - accentuded note
NH - natural harmonic
AH - artificial harmonic
TH - tapped harmonic
SH - semi harmonic
PH - pitch harmonic
h - hammer on
p - pull off
b - bend
br - bendRelease
pb - preBend
pbr - preBendRelease
brb - bendReleaseBend
\n/ - tremolo bar dip
\n - tremolo bar dive
-/n - tremolo bar Release up
/n\ - tremolo bar inverted dip
/n - tremolo bar return
-\n - tremolo bar Release down
S - shift slide
s - legato slide
/ -  slide into from below or out of upwards
\ -  slide into from above or out of downwards
~ - vibrato
W - wide vibrato
tr - trill
TP - tremolo picking
T - tapping
S - slap
P - pop
< - fade in
^ - brush up
v - brush down