Cream - Sunshine Of Your Love Text Guitar Tab

Learn the song with the online tablature player
Here's an awesome song with one of the most recognizable riffs in music.
The verse and chorus to the song are pretty easy, but Clapton has a bitching
solo in there that's quite tough.  I'm pretty sure this is right, or atleast
the closest thing to correct I've seen.  E-mail me with any comments or questions.

h=hammer-on
p=pull-off
b=bend
~~~~~ = hold note

Song Order:
Riff 1 x 6
Riff 2 x 2
Riff 1 x 2
Chorus x 2
Chorus part 2 x 1

Riff 1 x 6
Riff 2 x 2
Riff 1 x 2
Chorus x 2
Chorus part 2 x 1

Solo

Riff 1 x 6
Riff 2 x 2
Riff 1 x 2
Chorus x 5
Chorus part 2 x 1

Riff One

------12--12---10---12--------------------------------------------------------
 It's getting near dawn.....

Riff 2

------12--12---10---12--------------------------------------------------------
  I'll be with you darling soon....

Chorus

--7-7-7-------------5---------5-----------------------------------------------
--7-7-7-------------3---------5-----------------------------------------------
--5-5-5-----------------------3-----------------------------------------------
        I've been waiting so long.......

Chorus part 2

--7-7-7----------5---------5------7-7-7-7-7-7-7-7-----------------------------
--7-7-7----------3---------5------7-7-7-7-7-7-7-7-----------------------------
--5-5-5--------------------3------5-5-5-5-5-5-5-5-----------------------------
        In this sunshine of your love............

Solo

--b12--b12-------12-b12----b12---12--b12----------b9p7--9--7--b9--7-----------

          ~~~~~~                        ~~~~~~~~                   ~~~~~~~~~
                            ~~~~~~~~~~

--b10----b10----------10--7--b9-----7---------b9------------7h9---b9----------
             ~~~~~~~                  ~~~~~~

--7hb9---b9--b9--7--9---7h9--7----------14-----12--10--11------10-------------
                               ~~~~~~~     ~~~

--10h11------------b10-------10--b12-----------b12--12--10------12---12/14----

        ~~~~~                        ~~~~~                ~~~~~

--13-------------------10--10-------------------------------------------------
------14/12--10---b12--------------b12--10------b10---------------------------
                                                             ~~~~~~
--------------10----10-----10--12--12/14-----------14-----------------14/12---
--10----10----10h12-10h12-----------------------------------------------------
--10h12-10h12-----------------------------------------------------------------

                                        ~~~~~~
--b10----12p10----12/14----------14-----------------------------14/12--b10----

                       ~~~~~
----------12--10---12/14--------14----14---14/12--b10-------------------------
--12--12------------------------------------------------12p10------10h12------