Cute Is What We Aim For - Fourth Drink Instinct Acoustic Chords

 
         
         
         
         
         
X
3
2
1
3 fr
         
         
         
         
         
X
1
2
3
4
1
8 fr
         
         
         
         
         
1
3
4
2
1
1
3 fr
         
         
         
         
         
X
1
X
3
4
1
5 fr
         
         
         
         
         
3
2
1
1
1
4
10 fr
         
         
         
         
         
X
X
1
3
4
3

12 fr
         
         
         
         
         
X
4
3
1
2
1
3 fr
         
         
         
         
         
X
         
         
         
         
         
X
2
3
1
5 fr
         
         
         
         
         
1
3
4
1
1
1
5 fr
         
         
         
         
         
X
X
1
1
1
8 fr
         
         
         
         
         
X
3
2
4
1
2 fr
         
         
         
         
         
X
1
4
4
4
7 fr
         
         
         
         
         
X
1
3
4
2

9 fr
         
         
         
         
         
X
4
3
1
2
X
12 fr
         
         
         
         
         
X
1
3
4
2
1
5 fr
         
         
         
         
         
X
         
         
         
         
         
1
3
4
2
1
1
5 fr
         
         
         
         
         
X
4
3
1
2
1
3 fr
         
         
         
         
         
X
X
1
2
4
3
         
         
         
         
         
X
X
3
2
1
1
8 fr
         
         
         
         
         
X
1
3
3
3
1
10 fr
         
         
         
         
         
4
3
1
1
1
X

10 fr
         
         
         
         
         
3
2
1
1
1
4
         
         
         
         
         
3
2
4
3 fr
         
         
         
         
         
1
3
4
2
1
1
         
         
         
         
         
2
1
3
4
3 fr
         
         
         
         
         
X
X
3
2
1
1
5 fr
         
         
         
         
         
X
X
1
3
4
3
7 fr
         
         
         
         
         
X
4
3
1
2
1

10 fr
         
         
         
         
         
X
1
2
3
4
X
10 fr
         
         
         
         
         
X
1
3
3
3
1
12 fr
         
         
         
         
         
3
2
1
1
1
4
         
         
         
         
         
X
X
1
3
2
2 fr
         
         
         
         
         
X
4
3
1
2
1
5 fr
         
         
         
         
         
X
1
2
3
4
1
5 fr
         
         
         
         
         
X
1
4
4
4
X
7 fr
         
         
         
         
         
4
3
1
1
1
X
7 fr
         
         
         
         
         
3
2
1
1
1
4

10 fr
         
         
         
         
         
1
3
4
2
1
1
12 fr
         
         
         
         
         
X
X
1
3
4
3
5 fr
         
         
         
         
         
X
X
7 fr
         
         
         
         
         
1
3
4
2
1
1
         
         
         
         
         
X
2
1
X
3
         
         
         
         
         
X
1
4
4
4
X
         
         
         
         
         
X
1
3
3
3
1
4 fr
         
         
         
         
         
4
3
1
1
1
X
4 fr
         
         
         
         
         
3
2
1
1
1
4

9 fr
         
         
         
         
         
X
X
1
3
4
3
11 fr
         
         
         
         
         
X
4
3
1
2
1
No chord
    
Standard guitar tuning:
E
A
D
G
B
E
No capo
-------------------------------|
-------------------------------|
---9---------------------------|
---9-------------------------7-|
---7-------------------------7-|
-----------------------------5-|
She said it was a one night stand But the alchohol
-------------------------------|
-------------------------------|
---7---------------------------|
---7-------------------------5-|
---5-------------------------5-|
-----------------------------3-|
Didn't let her ...... understand
-------------------------------|
-------------------------------|
---9---------------------------|
---9-------------------------7-|
---7-------------------------7-|
-----------------------------5-|
..said it was a one night stand
----------------------------------------|
----------------------------------------|
----------------------------------------|
------------5---------------------------|
------------5---------------------------|
------------3---------------------------|
one night stand So whCat made you think that he cAmouldn't find a door in the morning when he fFound that bed so easily in the dGark So the baCrtender who tends to pretend that he's concDerned, says girlie girlie YoFu're at your best when youB're sober And she slCurs, no no just one more and oDne turns into four The foFurth drink instinct is taking over And the genBtleman is leading her towards the door So whCat made you think that he cAmouldn't find a door in the morning when he fFound that bed so easily in the dGark
Strum according to song..
-----------------------------------------------------------|
-----------------------------------------------------------|
-----------------------------------------------------------|
-9--------------------------5------------3-----------7-----|
-9--------------------------5------------3-----------7-----|
-7--------------------------3------------1-----------5-----|
She thought that she could buy happiness by by the bottle GShe thought that she could bCuy happiness Fby by the bBottle So wChat made you think that he cAmouldn't find a door in the morning when he fFound that bed so easily in the dGark
-------------------------------|
-------------------------------|
---9---------------------------|
---9-------------------------7-|
---7-------------------------7-|
-----------------------------5-|
She said it was a one night stand But the alchohol
-------------------------------|
-------------------------------|
---7---------------------------|
---7-------------------------5-|
---5-------------------------5-|
-----------------------------3-|
Didn't let her ...... understand
-------------------------------|
-------------------------------|
---9---------------------------|
---9-------------------------7-|
---7-------------------------7-|
-----------------------------5-|
..said it was a one night stand

All Content on this page is the property of the copyright owner of the original composition.