Death - Crystal Mountain Text Guitar Tab

Learn the song with the online tablature player
"Crystal Mountain" by Death, off of their legendary 1995 album Symbolic.

Intro
     A
|--------------|--------------|--------------|--------------|
|--------------|--------------|--------------|--------------|
|--------4-----|--------3-----|--------4-----|--------------|
|--------2-----|--------1-----|--------2-----|--4--3--------|
|--------2-----|--------1-----|--------2-----|--2--1--3--5--|
|--0-000-------|--0-000-------|--0-000-------|--------1--3--|
   . ...          . ...          . ...

     A1
Guitars I & II
|--------------|--------------|
|--------------|--------------|
|--------4-----|--------3-----|
|--------2-----|--------1-----|
|--------2-----|--------1-----|
|--0-000-------|--0-000-------|
   . ...          . ...

|Guitar I
|---------------------------|---------------------------|
|---------------------------|---------------------------|
|--10--9--7-----------------|---------------------------|
|-----------10--9--7--6-----|--------------6--7--9--10--|
|------------------------8--|--7--5--7--8---------------|
|---------------------------|---------------------------|
|
|Guitar II
|---------------------------|---------------------------|
|---------------------------|---------------------------|
|--17-16-14-----------------|---------------------------|
|-----------17-16-14-13-----|--------------13-14-16-17--|
|-----------------------15--|--14-12-14-15--------------|
|---------------------------|---------------------------|

Verse
Play Riff A x2

     B
x2)
Guitars I & II
|---------0-----|------------|------------|------------|
|------------0--|------------|------------|------------|
|---------------|--5---------|------------|------------|
|---------------|------------|--------2---|--------0---|
|--0------------|------------|-----0------|-----3------|
|---------------|------------|--3---------|--1---------|

     B1
Guitars I & II
|--------------|------|------------|------------|
|--------------|------|------------|------------|
|--------------|------|--6---------|-------5----|
|--------------|------|--6---------|--6----5----|
|--5-7-8-5~~~--|------|--4---------|--6----3----|
|--------------|------|--4---------|--4----3----|
   . . .

|Guitar I
|--------------|------|------------|------------|
|--------------|------|------------|------------|
|--------------|------|------------|--6----5----|
|--------------|------|--4---------|--6----5----|
|--5-7-8-5~~~--|------|--4---------|--4----3----|
|--------------|------|--2---------|--4----3----|
|  . . .
|
|Guitar II
|--------------|------|------------|------------|
|--------------|------|------------|------------|
|--------------|------|------------|--6----5----|
|--------------|------|--4---------|--6----5----|
|--------------|------|--4---------|--4----3----|
|--3-5-6-3~~~--|------|--2---------|--4----3----|
   . . .

Play Riff B x2

Chorus

     C
x3)
|Guitar I
|---------------------------|---------------------------|
|---------------------------|---------------------------|
|---------------------------|---------------------------|
|---------------------------|--8------------------------|
|--------------8------------|--------------5------------|
|--5------------------------|---------------------------|
|
|Guitar II
|---------------------------|---------------------------|
|---------------------------|-----------------------12--|
|---------------------------|--------------14----14-----|
|-----------12-14----12-----|-----12-14-15----15--------|
|--12-14-15-------15----14--|--15-----------------------|
|---------------------------|---------------------------|

|Guitar I
|---------------------------|---------------------------|
|---------------------------|---------------------------|
|---------------------------|---------------------------|
|--------------10-----------|---------------------------|
|--7------------------------|--------------10-----------|
|---------------------------|--8------------------------|
|
|Guitar II
|---------------------------|---------------------------|
|--12-13--------------------|---------------------------|
|--------14----14-----------|---------------------------|
|-----------15----15-14-12--|--14-15-14-12-------12-----|
|---------------------------|--------------14-15----14--|
|---------------------------|---------------------------|

|Guitar I
|--------------------|--------------------|
|--------------------|--------------------|
|--------------------|--------------------|
|--10-------9--------|--10--------10---9--|
|-----7-0-0---7-0-0--|-----7-0-0-----7----|
|--------------------|--------------------|
|       . .     . .          . .
|
|Guitar II
|--------------------|--------------------|
|--------------------|--------------------|
|--------------------|--------------------|
|--------------------|------------10---9--|
|--12~~~-------------|--(12)~~~------7----|
|--------------------|--------------------|

Guitars I & II
|--------------------|--------------------|
|--------------------|--------------------|
|--------------------|--------------------|
|--10-------9--------|--10--------10---9--|
|-----7-0-0---7-0-0--|-----7-0-0-----7----|
|--------------------|--------------------|
        . .     . .          . .

Interlude
     D
|Guitar I
|-----------------------|--------------------|
|-----------------------|--------------------|
|-----------------------|--------------------|
|--2--------------------|--(2)---------------|
|--2--------------------|--(2)---------------|
|--0--------------------|--(0)---------------|
|
|Guitar II
|-----------------------|--------------------|
|--------------------9--|--10--9-------------|
|-------------9--10-----|---------10-10~~~---|
|--2--------------------|--------------------|
|--2--------------------|--------------------|
|--0--------------------|--------------------|

|Guitar I
|-----------------------|--------------------|
|-----------------------|--------------------|
|-----------------------|--------------------|
|--3--------------------|--(3)---------------|
|--3--------------------|--(3)---------------|
|--1--------------------|--(1)---------------|
|
|Guitar II
|-----------------------|--------------------|
|-------9h10p9------12--|--10-9--------------|
|--------------10-------|--------10-9--------|
|-----------------------|--------------10-9--|
|-----------------------|--------------------|
|-----------------------|--------------------|

     E
Guitars I & II
|-------------------|------------------|
|-------------------|------------------|
|----------9-9------|------------------|
|--2-------9-9------|------------------|
|--2-------7-7------|------5---8----7--|
|--0-0-0-0-0-0-0-0--|--0-0---6---5-----|
   . . . .     . .     . .

|-------------------|------------------|
|-------------------|------------------|
|-------------------|------------------|
|-------------------|------------------|
|-------------------|-------5---7~~----|
|--0--000000000000--|--0000---6--------|
   .  ............     ....

     E1
Guitars I & II
|-------------------|------------------|
|-------------------|------------------|
|--------------9-9--|------------------|
|--------------9-9--|------------------|
|--------------7-7--|------5---8---7---|
|--0-000-0-0-0-0-0--|--0-0---6---5-----|
   . ... . . .         . .

|-------------------|------------------|
|-------------------|------------------|
|-------------------|------------------|
|-------------------|------------------|
|-------------------|-------5---7~~----|
|--0--000000000000--|--0000---6--------|
   .  ............     ....

     E2
Guitars I & II
|-------------------|------------------|
|-------------------|------------------|
|--------------9-9--|------------------|
|--------------9-9--|------------------|
|--------------7-7--|------5---8---7---|
|--0-0 0-0-0-0-0-0--|--0-0---6---5-----|
   . . . . . .         . .

|-------------------|------------------|
|-------------------|------------------|
|-------------------|------------------|
|-------------------|------------------|
|-------------------|-------5---7~~----|
|--0--000000000000--|--0000---6--------|
   .  ............     ....

Play Riff E1 x1

     F
|Guitar I
|-----12p7--12p8--12p7--12p5---------------------|
|--5---------------------------12p8--12p7--12p8--|
|------------------------------------------------|
|------------------------------------------------|
|------------------------------------------------|
|------------------------------------------------|
|      t     t     t     t      t     t     t
|
|Guitar II
|-----19p14-19p15-19p14-19p12--------------------|
|--12-------------------------19p15-19p14-19p15--|
|------------------------------------------------|
|------------------------------------------------|
|------------------------------------------------|
|------------------------------------------------|
       t    t      t     t     t     t     t

     F1
x7)
|Guitar I
|--------12p7--12p8--12p7--12p5---------------------|
|--12p5--------------------------12p8--12p7--12p8---|
|---------------------------------------------------|
|---------------------------------------------------|
|---------------------------------------------------|
|---------------------------------------------------|
|  t     t      t     t     t     t     t     t
|
|Guitar II
|--------19p14-19p15-19p14-19p12--------------------|
|--19p12-------------------------19p15-19p14-19p15--|
|---------------------------------------------------|
|---------------------------------------------------|
|---------------------------------------------------|
|---------------------------------------------------|
    t     t     t     t     t     t     t     t

Solo
|Guitar I
|---------------|---------------|
|---------------|---------------|
|---------------|--8------------|
|--6------------|--8------------|
|--6------------|--6------------|
|--4------------|---------------|
|
|Guitar II
|---------------|---------------|
|---------------|---------------|
|---------------|---------------|
|---------------|--11~~~--------|
|--11~~--13-14--|---------------|
|---------------|---------------|

|Guitar I
|---------------------------|-------------------------|
|---------------------------|-------------------------|
|---------------------------|--9----------------------|
|--7------------------------|--9----------------------|
|--7------------------------|--7----------------------|
|--5------------------------|-------------------------|
|
|Guitar II
|---------------------------|-------------------------|
|---------------------------|--14h16p14----14---------|
|-----------------13-15-16--|-----------16----16-15~--|
|-----------13-14-----------|-------------------------|
|--13-14-16-----------------|-------------------------|
|---------------------------|-------------------------|

|Guitar I
|---------------------|------------------------|
|---------------------|------------------------|
|---------------------|--9---------------------|
|--9------------------|--9---------------------|
|--9------------------|--7---------------------|
|--7------------------|------------------------|
|
|Guitar I
|-----------------16--|--------18--19--18--16--|
|-----------16-17-----|--17--------------------|
|--15-16-15-----------|-----18-----------------|
|---------------------|------------------------|
|---------------------|------------------------|
|---------------------|------------------------|

|Guitar I
|-------------------------------------------|---------|
|-------------------------------------------|---------|
|--8----------------------------------------|--(8)----|
|--8----------------------------------------|--(8)----|
|--6----------------------------------------|--(6)----|
|-------------------------------------------|---------|
|
|Guitar II
|--16-19-19-18-16-18-16---------------------|---------|
|----------------------17-16-14-16-14-------|---------|
|------------------------------------16-13--|--15~~~--|
|-------------------------------------------|---------|
|-------------------------------------------|---------|
|-------------------------------------------|---------|

|Guitar I
|-------------|-------------|-------------|
|-------------|-------------|-------------|
|-------------|--8----------|-------------|
|--6----------|--8----------|--7----------|
|--6----------|--6----------|--7----------|
|--4----------|-------------|--5----------|
|
|Guitar II
|--16---------|--18---------|--19---------|
|--19b21------|--21b23------|--22b24------|
|-------------|-------------|-------------|
|-------------|-------------|-------------|
|-------------|-------------|-------------|
|-------------|-------------|-------------|

|Guitar I
|---------------------------------|----------------------|----------|
|---------------------------------|----------------------|----------|
|--9------------------------------|----------------------|--9-------|
|--9------------------------------|--9-------------------|--9-------|
|--7------------------------------|--9-------------------|--7-------|
|---------------------------------|--7-------------------|----------|
|
|Guitar II
|--18-19-19-18-16-18-16-----------|----------------------|----------|
|----------------------17-14-16~--|--16\14~-----14/19~~--|--(19)~---|
|---------------------------------|----------------------|----------|
|---------------------------------|----------------------|----------|
|---------------------------------|----------------------|----------|
|---------------------------------|----------------------|----------|

|Guitar I
|---------------------------------|--------|
|---------------------------------|--------|
|--8------------------------------|--(8)---|
|--8------------------------------|--(8)---|
|--6------------------------------|--(6)---|
|---------------------------------|--------|
|
|Guitar II
|---------------------------------|--------|
|--16--17--16--14h16p14---14------|--------|
|-----------------------16----16--|--15~~--|
|---------------------------------|--------|
|---------------------------------|--------|
|---------------------------------|--------|

Play Riff A x1
Play Riff A1 x1
Play Riff A x2
Play Riff B x2
Play Riff B1 x1
Play Riff B x2
Play Riff C x3

Guitar II Ending Acoustic Fills
Fill 1
|----------------|----------|-----------10--12--13--12--|
|--12-13-12~~~---|--(12)~~--|--10/12-13-----------------|
|----------------|----------|---------------------------|
|----------------|----------|---------------------------|
|----------------|----------|---------------------------|
|----------------|----------|---------------------------|

|--8/10----10-------------|
|-------13----13--12~~~---|
|-------------------------|
|-------------------------|
|-------------------------|
|-------------------------|

Fill 2
|---------------------|---------|
|-----------9---------|---------|
|--7--9--10----10--7--|--9~~~---|
|---------------------|---------|
|---------------------|---------|
|---------------------|---------|

|--------------|----------------|
|-------9-10~--|-------9--------|
|--9-10--------|--9-10---10-9~--|
|--------------|----------------|
|--------------|----------------|
|--------------|----------------|

Fill 3
|----10--12---13---12---10-----|-------------|
|---10---------------------12--|--12h13~~~---|
|--12--------------------------|-------------|
|------------------------------|-------------|
|------------------------------|-------------|
|------------------------------|-------------|

|------------------------------|-------------|
|--13h15p13~-----12h13p12~-----|--10h12~~~---|
|------------------------------|-------------|
|------------------------------|-------------|
|------------------------------|-------------|
|------------------------------|-------------|

Key:

.       = Palm-mute
/       = Slide up
\       = Slide down
h       = Hammer-on
p       = pull-off
~       = Vibrato
b       = Bend