Deathstars - The Greatest Fight On Earth Text Guitar Tab

Learn song with the online tabulature player
=================================================================================

                        Greatest Fight on Earth
=================================================================================

By:  Deathstars
Album: Termination Bliss

Tabbed by: John Moores
mooresjw@email.uc.edu



Drop C Tuning (CGCFAD)

* = Palm Mute
@ = Pinched harmonic
x = muted




Verse 1
0:42

|-------------------------------------------------------|
|-------------------------------------------------------|
|-------------------------------------------------------|
|-------------------------------------------------------| x4
|----7-7--7--7-7----1-1--1--5-5-------------------------|
|----7-7--7--7-7----1-1--1--5-5-------------------------|
     * *  *  * *    * *  *  * *

Pre-chorus
1:02
|-------------------------------------------------------|
|-------------------------------------------------------|
|-------------------------------------------------------|
|-------------------------------------------------------|
|-----7-7---7--9--10------------------------------------|
|-----7-7---7--9--10------------------------------------|
      * *

|-------------------------------------------------------|
|-------------------------------------------------------| 
|-------------------------------------------------------|
|---3-----------10--9--5--0-----------10--9--5----------|
|---3-----------10--9--5--0-----------10--9--5----------|
|---3--3-3-3-3--10--9--5--0--0-0-0-0--10--9--5----------|
       * * * *               * * * *

|-------------------------------------------------------|
|-------------------------------------------------------|
|-------------------------------------------------------|
|--7-----------7--9-------3-----------------------------|
|--7-----------7--9--10---3-----------------------------|
|--7--7-7-7-7--7--9--10---3--3-3-3-3--------------------|
      * * * *  *  *  *       * * * *
|-------------------------------------------------------|
|-------------------------------------------------------| 
|-------------------------------------------------------|
|---10--9--5--3-----------10--9--5--0-------------------|
|---10--9--5--3-----------10--9--5--0-------------------|
|---10--9--5--3--3-3-3-3--10--9--5--0--0-0-0-0----------|
                 * * * *               * * * *

|-------------------------------------------------------|
|-------------------------------------------------------|
|-------------------------------------------------------|
|--10--9--5----2-----------2-----------2------------6---|
|--10--9--5----2-----------2-----------2------------6---|
|--10--9--5----2--2-2-2-2--2--2-2-2-2--2--2-2-2-2---6---|
                  * * * *     * * * *     * * * *

1:24

|-------------------------------------------------------|
|-------------------------------------------------------|
|-------------------------------------------------------|
|--0---------3---------7---7-10-9-5---5--7---9----------| x2
|--0--0-3-0--3---------7---7-10-9-5---5--7---9----------|
|--0--0-3-0--3--3-2-0--7---7-10-9-5---5--7---9----------|
      * * *     * * * 

Verse 2
1:44
|-------------------------------------------------------|
|-------------------------------------------------------|
|-------------------------------------------------------|
|-------------------------------------------------------| x4
|----7-7--7--7-7----1-1--1--5-5-------------------------|
|----7-7--7--7-7----1-1--1--5-5-------------------------|
     * *  *  * *    * *  *  * *

Pre-chorus
2:04

|-------------------------------------------------------|
|-------------------------------------------------------|
|-------------------------------------------------------|
|-------------------------------------------------------|
|-----7-7---7--9--10------------------------------------|
|-----7-7---7--9--10------------------------------------|
      * *

|-------------------------------------------------------|
|-------------------------------------------------------| 
|-------------------------------------------------------|
|---3-----------10--9--5--0-----------10--9--5----------|
|---3-----------10--9--5--0-----------10--9--5----------|
|---3--3-3-3-3--10--9--5--0--0-0-0-0--10--9--5----------|
       * * * *               * * * *

|-------------------------------------------------------|
|-------------------------------------------------------|
|-------------------------------------------------------|
|--7-----------7--9-------3-----------------------------|
|--7-----------7--9--10---3-----------------------------|
|--7--7-7-7-7--7--9--10---3--3-3-3-3--------------------|
      * * * *  *  *  *       * * * *
|-------------------------------------------------------|
|-------------------------------------------------------| 
|-------------------------------------------------------|
|---10--9--5--3-----------10--9--5--0-------------------|
|---10--9--5--3-----------10--9--5--0-------------------|
|---10--9--5--3--3-3-3-3--10--9--5--0--0-0-0-0----------|
                 * * * *               * * * *

|-------------------------------------------------------|
|-------------------------------------------------------|
|-------------------------------------------------------|
|--10--9--5----2-----------2-----------2------------6---|
|--10--9--5----2-----------2-----------2------------6---|
|--10--9--5----2--2-2-2-2--2--2-2-2-2--2--2-2-2-2---6---|
                  * * * *     * * * *     * * * *

2:28
|-------------------------------------------------------|
|-------------------------------------------------------|
|-------------------------------------------------------|
|---------------13\-------------------------------------| x3
|---777--77-7---13\---777--7--10-9-5--------------------|
|---777--77-7---13\---777--7--10-9-5--------------------|
    ***  ** *         ***

Play this on the last time
|-------------------------------------------------------|
|-------------------------------------------------------|
|-------------------------------------------------------|
|---------------13\-------------------------------------|
|---777--77-7---13\---777--7-99-10-10-12-12--13-13------|
|---777--77-7---13\---777--7-99-10-10-12-12--13-13------|
    ***  ** *         ***  * ** *  *  *  *   *  *                         

2:48

|-------------------------------------------------------|
|-------------------------------------------------------|
|-------------------------------------------------------|
|--0---------3---------7---7-10-9-5---5--7---9----------| x4
|--0--0-3-0--3---------7---7-10-9-5---5--7---9----------|
|--0--0-3-0--3--3-2-0--7---7-10-9-5---5--7---9----------|
      * * *     * * *        *  * *      *   *