Deep Purple - Lazy Text Bass Tab

Learn the song with the online tablature player
Song: Lazy
Artist: Deep Purple

                   (01:45)
G||------------------|-------------------|------------------|
D||------------------|-------------------|------------------|
A||------------------|-------------------|------------------|
E||------------------|----------------1--|------------------|

G|------------------|-------------------|-------------------|
D|------------------|-------------------|-------------------|
A|------------------|-------------------|--1----------------|
E|------------------|----1--------------|-------------------|

G|-------------------|---------------------|-------------------|
D|-------------------|---------------------|-------------------|
A|--1----------------|---------------------|-------------------|
E|-------------------|--1------------1/-3--|--1----------------|

G|--------------|-------------------|------------------|
D|--------------|-------------------|------------------|
A|--------------|-------------------|------------------|
E|--------------|----1--------------|------------------|

G|-------------------|-------------------|---------------------|
D|-------------------|-------------------|---------------------|
A|-------------------|----------------3--|----3----3----3------|
E|----1--------------|-------------------|---------------------|

Guitar solo
G|--------------------------|----------------------------|
D|--------------------------|----------------------------|
A|--------------------------|------------------1---------|
E|--1--1--1--1--1--1--1--1--|--1--1--1--1--1-4---4-1--1--|

G|-------------------------|----------------------------|
D|-------------------------|----------------------------|
A|--1--1--1-----1--1--1----|-----------------1-3-1------|
E|-----------4-------------|--1--1--1----1-4-------4-2--|

G|---------------------------|--------------------------|
D|--------------1------------|--------------------------|
A|----------3-4-----------1--|------------1-3-1---------|
E|--4--4--4---------3--4-----|--1--1--1-4-------3-------|

G|-------------------------|-------------------------------|
D|-------------------------|----------3-1------------------|
A|-------------------------|------1-3-----3-1-3--3-1-------|
E|--1--1--1----1--1--1-4---|--1-4--------------------1--1--|

G|----------------------|------------------------|
D|----------------------|------------------------|
A|--1--------------1----|------------------------|
E|---------0--1---------|--1--1--4----1--1--4----|

G|-------------------------|---------------------------|
D|-------------------------|----------------3----------|
A|----------------1--------|------------1-3----1-3-----|
E|--4--4--4--4-------4--3--|--1--1--1-4----------------|

G|------------------------------|-----------------------------|
D|------------------------------|-----------------------------|
A|------------------1---1---1---|--1---1---1------------------|
E|--1--1--1-4---1-4---4---4---4-|----4---4---4-1--1--1--1--1--|

G|-------------------------|-------------------------|
D|-------------------------|-------------------------|
A|--1--1--1-----1--1--1----|-------------------------|
E|-----------4-------------|--1--1--1----1--1--1--3--|

G|--------------------------|--------------------------|--------------|
D|-----------0--1-----------|--------------------------|--------------|
A|-----3--4--------1--------|------------1---1---------|--------------|
E|--4-----------------4--3--|--1--1--1-4---4----4------|--------------|

G|-------------------|------------------|-------------------|
D|-------------------|------------------|-------------------|
A|-------------------|------------------|-------------------|
E|----1--------------|------------------|----1--------------|

G|-------------------|---------------------|--------------------------|
D|-------------------|---------------------|--------------------------|
A|----------------3--|----3----3----3------|--------------------------|
E|-------------------|---------------------|--1--1--1--1--1--1--1--1--|

 Organ Solo
G|----------------------------|-------------------------|
D|----------------------------|-------------------------|
A|------------------1---------|--1--1--1-----1--1--1----|
E|--1--1--1--1--1-4---4-1--1--|-----------4-------------|

G|----------------------------|---------------------------|
D|----------------------------|--------------1------------|
A|-----------------1-3-1------|----------3-4-----------1--|
E|--1--1--1----1-4-------4-2--|--4--4--4---------3--4-----|

G|--------------------------|--------------------------|
D|--------------------------|--------------------------|
A|------------1-3-1---------|--------------------------|
E|--1--1--1-4-------3-------|--1--1--1--1--1--1--1-4---|

G|-------------------------------|-----------------------|
D|----------3-1------------------|-------1---------------|
A|------1-3-----3-1-3--3-1-------|--1--------------1-----|
E|--1-4--------------------1--1--|----------0--1---------|

G|------------------------|-------------------------|
D|------------------------|-------------------------|
A|------------------------|----------------1--------|
E|--1--1--4---1--1--4-----|--4--4--4--4-------4--3--|

G|---------------------------|------------------------------|
D|----------------3----------|------------------------------|
A|------------1-3----1-3-----|------------------1---1---1---|
E|--1--1--1-4----------------|--1--1--1-4---1-4---4---4---4-|

G|-----------------------------|--------------------------|
D|-----------------------------|--------------------------|
A|--1---1---1------------------|--1--1--1-----1--1--1-----|
E|----4---4---4-1--1--1--1--1--|-----------4-----------4--|

G|--------------------------|--------------------------|
D|--------------------------|-----------0--1-----------|
A|--------------------------|-----3--4--------1--------|
E|--1--1--1--1--1--1--1--3--|--4-----------------4--3--|

G|--------------------------|--------------|-------------------|
D|--------------------------|--------------|-------------------|
A|------------1---1---------|--------------|-------------------|
E|--1--1--1-4---4----4------|--------------|----1--------------|

G|------------------|-------------------|-------------------|
D|------------------|-------------------|-------------------|
A|------------------|-------------------|----------------3--|
E|------------------|----1--------------|-------------------|

G|----------------------|-----------------------|
D|----------------------|----0----0----0---0----|
A|----3----3----3---3---|-----------------------|
E|----------------------|--------------------1--|

You're lazy......
G|--------------------------|--------------------------|
D|--------------------------|--------------------------|
A|--------------------------|--------------------------|
E|--3--3--3--3--3--3--3--3--|--3--3--3--3--3--3--3--3--|

G|---------------------------|--------------------------|
D|---------------------------|--------------------------|
A|--3--3--3--3--3--3--3--3---|--------------------------|
E|-------------------------1-|--3--3--3--3--3--3--3--3--|

G|--------------------------|------------------------|
D|--------------------------|------------------------|
A|--1--1--1--1--------------|------------------------|
E|--------------1--1--1--1--|--3--3--3--3--3--3------|

G|---------------------------|--------------------------|
D|---------------------------|--------------------------|
A|---------------------------|--------------------------|
E|--3--3--3--3--3--3--3--1-2-|--3--3--3--3--3--3--3--3--|

G|---------------------------|---------------------------|
D|---------------------------|---------------------------|
A|--3--3--3--3--3--3--3--3---|-------------------------1-|
E|-------------------------1-|--3--3--3--3--3--3--3--3---|

G|---------------------------|------------------------|
D|---------------------------|------------------------|
A|--1--1--1--1-0----0--1--3--|------------------------|
E|---------------1-----------|--3--3--3-1---3-1-------|

Harmonica solo
G|--------------------------|--------------------------|
D|--------------------------|--------------------------|
A|-----------------------1--|--------------------------|
E|--3--3-1---1--3--3-1------|--3--3-1---1--3--3-1---3--|

G|------------------------|------------------------------|
D|------------------------|------------------------------|
A|------------------------|-----------1------------------|
E|--3----1--2--3--1--3----|--3--3-1-3---3-1-3--3-1--1-3--|

G|--------------------------|------------------------|
D|--------------------------|------------------------|
A|--1--1--1--1--------------|------------------------|
E|--------------1--1--1--1--|--3--3--3-1---3-1-------|

G|------------------------------|--------------------------------------|
D|------------------------------|--------------------------------------|
A|---------------------------1--|-----1--1--------0--0--1--1--0--0-----|
E|--3--3--1----1--3--3--1-------|--3--------3--3--------------------3--|

G|----------------------------|----------------------------|
D|----------------------------|----------------------------|
A|--------------0-0-1-1-3-1---|------------------1---------|
E|--3-1---1--3----------------|--3-3-1----1--3-3----3-3-3--|

G|---------------------------|--------------------------|
D|--------0-0-3--------------|--------------------------|
A|--1--1------------3--1-----|--------------------------|
E|---------------1--------1--|--3--3--3--3--3--3--3--3--|

G|------0--------------0----------|------0--------------0---------|
D|--------0-3----0-------0-3----0-|--------0-3----0-------0-3--0--|
A|-------------3--------------3---|-------------3-----------------|
E|--3-3------------3-3------------|--3-3------------3-3-----------|

G|------5-0-3----0-----5-0-3----0-|------0--------------0----------|
D|-------------3--------------3---|--------0-3----0-------0-3----0-|
A|--3-3------------3-3------------|-------------3--------------3---|
E|--------------------------------|--3-3------------3-3------------|

G|--3--------------2--3--4--|-----0------------0----------|
D|-----0--1--2--3-----------|-------0-3----0-----0-3----0-|
A|--------------------------|------------3------------3---|
E|--------------------------|--3--------------------------|

G|------0--------------0----------|------0--------------0---------|
D|--------0-3----0-------0-3----0-|--------0-3----0-------0-3--0--|
A|-------------3--------------3---|-------------3-----------------|
E|--3-3------------3-3------------|--3-3------------3-3-----------|

G|------5-0-3----0-----5-0-3----0-|------0--------------0----------|
D|-------------3--------------3---|--------0-3----0-------0-3----0-|
A|--3-3------------3-3------------|-------------3--------------3---|
E|--------------------------------|--3-3------------3-3------------|

G|--3--------------2--3--4--|------0-------------0---------|
D|-----0--1--2--3-----------|--------0-3-----------0-3-----|
A|--------------------------|-------------3----------------|
E|--------------------------|--3-3-----------3-3--------3--|

G|--------------------------|--------------------|
D|--------------------------|--------------------|
A|--0--0--0--0--0--0--0--0--|--0--0--0--0--0--0--|
E|--------------------------|--------------------|

G|--------------------------|--------------------------|
D|--------------------------|--------------------------|
A|--0--0--0--0--0--0--0--0--|--0--0--0--0--0--0--0--0--|
E|--------------------------|--------------------------|

G|--------------------------|--------------------------|
D|--------------------------|--------------------------|
A|--------------------------|-----------------0--1--2--|
E|--0--0--0--0--0--0--0--0--|--0--1--2--3--4-----------|

 Guitar solo 2
G|--------------------------|---------------------------|
D|--------------------------|---------------------------|
A|--0--0--------0--0--------|--0--0--------0--0---------|
E|-------0-3---------0-3----|-------0-3---------0-3--0--|

G|----------------------------|--------------------------|
D|--0--0---------0--0---------|--------------------------|
A|-------0-3----------0-3-----|--0--0--------0--0--------|
E|------------3------------3--|-------0-3---------0-3----|

G|--------------------------|--------------------------|
D|--------------------------|--------------------------|
A|--3--------------2--3--4--|--0--0--------0--0--------|
E|-----0--1--2--3-----------|-------0-3---------0-3----|

G|--------------------------|----------------------------|
D|--------------------------|--0--0---------0--0---------|
A|-0--0--------0--0---------|-------0-3----------0-3-----|
E|------0-3---------0-3--0--|------------3------------3--|

G|--------------------------|--------------------------|
D|--------------------------|--------------------------|
A|--0--0--------0--0--------|--3--------------2--3--4--|
E|-------0-3---------0-3----|-----0--1--2--3-----------|

G|------------------------|----------------------------|
D|------------------------|----------------------------|
A|--0--0--------0---------|--0-0-----------------------|
E|-------0-3-------0------|------------0-0-2-2-3-3-4-4-|

G|--------------------------0-0-----|----------------------------------|
D|----------0-0-1-1-2-2-4-4-----4-4-|--0-0-----------------------------|
A|--0-0-4-4-------------------------|------------------0-0-2-2-3-3-2-2-|
E|----------------------------------|------2-2-3-3-4-4-----------------|

G|---------------------------|--------------------------------|
D|---------------------------|----------------------------0-0-|
A|--0-0-------------0--------|--------------------2-2-3-3-----|
E|------3-3-0-0--------3--0--|----0-0-1-1-2-2-3-3-------------|

G|----------------------------|--------------------------------|
D|----------------------------|----------------------------0-0-|
A|-0-0---------0-------0------|--------------------2-2-3-3-----|
E|---------0-0---3-0-0---3-0--|----0-0-1-1-2-2-3-3-------------|

G---------------------------------|--------------------------------|
D---------------------------------|----------------------------0-0-|
A-0---------------0---------------|--------------------2-2-3-3-----|
E----3--2--0---------3--2--0------|----0-0-1-1-2-2-3-3-------------|

G|-------------------|----------------------------------|
D|-------------------|-------------------2-----0--1--2--|
A|--0----------------|----------0--1--2-----2-----------|
E|-------------------|--0----4--------------------------|

G|-----------------------------------|
D|--0--------------------------------|
A|---------------------0----3--2-----|
E|-----2--2--3----4---------------3--|

G|-------------------------------------|---------------------||
D|-------------------------------------|---------------------||
A|--0----0-----0--------0--------0-----|-------1---0---------||
E|----------3-----3--2-----2--1-----1--|--0------------------||

FINISH