Dire Straits - Lady Writer Text Bass Tab

Learn the song with the online tablature player
dire_straits/lady_writer.btab

 tempo 150       |       |        |       |       |       |
|--------------------------------|--------------------------------|
|--------------------------------|--------------------2-----------|
|0---------------2---2-------2---|4-----------4-------------------|
|--------------------------------|------------------------2---4---|

 |       |       |       |        |       |       |       |
|--------------------------------|--------------------------------|
|--------------------------------|--------------------------------|
|0---------------2---2-------2---|4-----------4-------------------|
|--------------------------------|--------------------2---2---4---|

 |       |       |       |        |       |       |       |
|--------------------------------|--------------------------------|
|--------------------------------|--------------------2-----------|
|0---------------2---2-----------|4-----------4-------------------|
|--------------------------------|------------------------2---4---|

 |       |       |       |        |       |       |       |
|--------------------------------|--------------------------------|
|--------------------------------|--------------------------------|
|0---------------2---2-----------|------------6-------------------|
|--------------------------------|4---4-----------4---4-------4---|

 |       Lady writer on the       TV      |       |       |
|--------------------------------|--------------------------------|
|--------------------------------|--------------------------------|
|0---------------2---2-----------|4-----------4-------------------|
|--------------------------------|--------------------2---2---4---|

 |       |       |       |        |       |       |       |
|--------------------------------|--------------------------------|
|--------------------------------|--------------------------------|
|0---------------2---2-------2---|4-----------4-----------4-------|
|--------------------------------|--------------------4-------4---|

 |       |       |       |        |       |       |       |
|--------------------------------|--------------------------------|
|--------------------------------|--------------------2-----------|
|0---------------2---2-------2---|4-----------4-------------------|
|--------------------------------|------------------------2---4---|

 |       |       |       |        |       |       |       |
|--------------------------------|--------------------------------|
|--------------------------------|--------------------------------|
|0---------------2---2-----------|------------6-------------------|
|--------------------------------|4---4-----------4---4-------4---|

 |       |       |       |        |       |       |       |
|--------------------------------|--------------------------------|
|--------------------------------|--------------------------------|
|0---------------2---2-----------|4-----------4-------------------|
|--------------------------------|--------------------0---2---4---|

 |       |       |       |        |       |       |       |
|--------------------------------|--------------------------------|
|--------------------------------|--------------------------------|
|0---------------2---2-------2---|4-----------4-------------------|
|--------------------------------|--------------------0---2---4---|

 |       |       |       |        |       |       |       |
|--------------------------------|--------------------------------|
|--------------------------------|--------------------------------|
|0---------------2---2-------2---|4-----------4-------------------|
|--------------------------------|--------------------0---2---4---|

 |       |       |       |        |       |       |       |
|--------------------------------|--------------------------------|
|--------------------------------|--------------------------------|
|0---------------2---2-----------|------------6-------------------|
|--------------------------------|4---4-----------4---4---7---5---|

 |       Just the|way... |        |       |       |       |
|--------------------------------|--------------------------------|
|------------------------0---2---|------------------------0---2---|
|0-----------0-------------------|0-----------0-------------------|
|--------------------------------|--------------------------------|

 |       |       |       |        |       |       |       |
|--------------------------------|--------------------------------|
|--------------------------------|--------------------------------|
|--------------------2---4---2---|--------------------2---4---2---|
|0-----------4-------------------|0-----------4-------------------|

 |       |       |       |        |       |       |       |
|--------------------------------|--------------------------------|
|------------------------0---2---|--------------------------------|
|0-----------0-------------------|0-----------0-----------0---0---|
|--------------------------------|--------------------------------|

 |       |       |       |        |       |       |       |
|----------------1---------------|--------------------------------|
|--------2-----------------------|----------------1---1---1-------|
|4-----------------------4---2---|--------2-------------------2---|
|--------------------------------|4-------------------------------|

 |       |       |       |        |       |       |       |
|--------------------------------|--------------------------------|
|--------------------------------|--------------------------------|
|--------0---------------0-------|0---------------7/--6-----------|
|2---------------2---------------|--------4---------------4-------|

 |       |       |       |        |       |       |       |
|--------------------------------|--------------------------------|
|--------------------------------|--------------------------------|
|4---------------4---------------|4---------------4---------------|
|--------------------------------|------------4-------------------|

 |       Lady writer on the       TV      |       |       |
|--------------------------------|--------------------------------|
|--------------------------------|--------------------2-----------|
|0---------------2---2-----------|4-----------4-------------------|
|--------------------------------|------------------------2---4---|

 |       |       |       |        |       |       |       |
|--------------------------------|--------------------------------|
|--------------------------------|--------------------2-----------|
|0---------------2---2-----------|4-----------4-------------------|
|--------------------------------|------------------------2---4---|

 |       |       |       |        |       |       |       |
|--------------------------------|--------------------------------|
|--------------------------------|--------------------------------|
|0---------------2---2-------2---|4-----------4-------------------|
|--------------------------------|--------------------0---2---4---|

 |       |       |       |        |       |       |       |
|--------------------------------|--------------------------------|
|--------------------------------|--------------------------------|
|0---------------2---2-------2---|------------6-------------------|
|--------------------------------|4---4-----------4---4-------4---|

 |       Just the|way... |        |       |       |       |
|--------------------------------|--------------------------------|
|------------------------0---2---|------------------------0---2---|
|0-----------0-------------------|0-----------0-------------------|
|--------------------------------|--------------------------------|

 |       |       |       |        |       |       |       |
|--------------------------------|--------------------------------|
|--------------------------------|--------------------------------|
|--------------------2---4-------|--------------------2---4---4---|
|0-----------4-------------------|0-----------4-------------------|

 |       |       |       |        |       |       |       |
|--------------------------------|--------------------------------|
|------------------------2-------|------------------------2-------|
|0-----------4-------------------|0-----------0-------4-------0---|
|--------------------------------|--------------------------------|

 |       |       |       |        |       |       |       |
|----------------1---------------|--------------------------------|
|--------2-----------------------|----------------1---------------|
|4-----------------------4---2---|--------2---------------2-------|
|--------------------------------|4---------------------------4---|

 |       |       |       |        |       |       |       |
|--------------------------------|--------------------------------|
|--------------------------------|--------------------------------|
|------------------------0-------|0---------------7/--6-----------|
|2-----------2---2---------------|--------4---------------4-------|

 |       |       |       |        |       |       |       |
|--------------------------------|--------------------------------|
|--------------------------------|--------------------------------|
|4-----------4---4-------4-------|4-----------4---4-------4-------|
|--------------------4-------4---|--------------------4-----------|

 You send|your rich old man       |       |       |       |
|------------1-----------4-------|------------1-----------4---1---|
|2-------------------------------|2-------------------------------|
|--------------------------------|--------------------------------|
|--------------------------------|--------------------------------|

 |       |       |       |        |       |       |       |
|--------------------------------|--------------------------------|
|------------1-----------4-------|------------1-------------------|
|2-------------------------------|2-------------------2-------1---|
|--------------------------------|--------------------------------|

 |       |       |       |        |       |       |       |
|--------------------------------|--------------------------------|
|--------------------------------|--------------------------------|
|------------------------4---6---|------------------------6-------|
|4-----------4-------------------|4-----------4-------------------|

 |       |       |       |        |       |       |       |
|--------------------------------|--------------------------------|
|--------------------------------|--------------------------------|
|----------------------------4---|------------------------0-------|
|2-----------2-------------------|2---2---2---2---2---2-------4---|

 |       |       |       |        |       |       |       |
|--------------------------------|--------------------------------|
|--------------------------------|--------------------2-----------|
|0---------------2---2-------2---|4-----------4-------------------|
|--------------------------------|------------------------2---4---|

 |       |       |       |        |       |       |       |
|--------------------------------|--------------------------------|
|--------------------------------|--------------------------------|
|0---------------2---2-------2---|4-----------4-------------------|
|--------------------------------|--------------------0---4---0---|

 |       |       |       |        |       |       |       |
|--------------------------------|------------------------1-------|
|--------------------------------|--------------------2-------2---|
|0---------------2---2-------2---|4-----------4-------------------|
|--------------------------------|--------------------------------|

 |       |       |       |        |       |       |       |
|--------------------------------|--------------------------------|
|--------------------------------|--------------------------------|
|0---------------2---2-------2---|------------6-----------6-------|
|--------------------------------|4---4-----------4---4-------4---|

 |       |       |       |        |       |       |       |
|--------------------------------|--------------------------------|
|--------------------------------|--------------------2-----------|
|0---------------2---2-------2---|4-----------4-------------------|
|--------------------------------|------------------------2---4---|

 |       |       |       |
|--------------------------------|
|----and so on ...---------------|
|--------------------------------|
|--------------------------------|