Django Reinhardt - Georgia On My Mind Text Guitar Tab

Learn the song with the online tablature player
Georgia On My Mind - Django Reinhardt
From: Djangologie 2 (Original Source 1936)

     Eb                    G7
E||---------------------|--------------------|
B||--8----10b-----------|--7r-------6~-------|
G||---------------------|--------------------|
D||---------------------|--------------------|
A||---------------------|--------------------|
E||---------------------|--------------------|

  Cm                               Abm6
--------------------------------|--13/---11------------------|
----8h9p8-7/8-9-8/13----15--16--|------------12--------------|
--------------------------------|----------------13------12--|
--------------------------------|----------------------------|
--------------------------------|----------------------------|
--------------------------------|----------------------------|

  Eb          Cm                 Fm          Bb7
------------------------------|------16----------------|
--11------13--15--15--15--13--|------------------------|
------------------------------|--13----------15~-------|
------------------------------|------------------------|
------------------------------|------------------------|
------------------------------|------------------------|

  Eb
----18-------17-------16-------15-----13---|
-------------------------------------------|
-------15-14----14-13----13-12-----10----9-|
-------------------------------------------|
-------------------------------------------|
-------------------------------------------|

  Fm               Bb7            Eb
----11-----10----8----7----6---|-----------------------|
-------------------------------|------8--8--11--7r-----|
--8----8-7-----5----4----3-----|-----------------------|
-------------------------------|-----------------------|
-------------------------------|-----------------------|
-------------------------------|-----------------------|

  G7                          Cm
--------------------7-10-8~|----------8--10--11--12--13~-|
------6-----------8--------|-----------------------------|
----------------7----------|-----------------------------|
-------------9-------------|-----------------------------|
---------------------------|-----------------------------|
---------------------------|-----------------------------|

            Abm6           Eb          Cm
------11----7-----------|--------------------------|
---------------9--------|--------------------------|
------------------8-----|--------------7--7--7--5--|
---------------------9--|--8h9p8-------------------|
------------------------|--------------------------|
------------------------|--------------------------|

  Fm           Bb7       Eb         Abm6
----------------------|-----------------------------11--|
----------------------|--------------------------12-----|
----------------------|------------------8-10/13--------|
--6------5--8--4~-----|----------------9----------------|
----------------------|------6--7/8-11------------------|
----------------------|---------------------------------|

  Eb        G           Cm
------------3--------|-------------------------|
--11~-------3--------|--------4--4--6--6--7~---|
------------4--------|--5--5-------------------|
------------5--------|-------------------------|
---------------------|-------------------------|
---------------------|-------------------------|

                        G7       Cm
------------------------------|-------------------------|
--4-------3--4--3h4p3---------|--------4--4--6--6--7~---|
-------5----------------0--0--|--5--5-------------------|
------------------------------|-------------------------|
------------------------------|-------------------------|
------------------------------|-------------------------|

    Cm6                     Cm
----6-----5--6--5~-------|------------------------|
-------8-----------------|--------4--4--6------4/-|
-------------------------|--5--5------------------|
-------------------------|------------------------|
-------------------------|------------------------|
-------------------------|------------------------|

          D7               Gm               E°
------------------------|-----------------------6--6-----|
----------15------10-13-|--11-----------------6----------|
------------------------|------12-----------6----------6-|
------------------------|---------12-8--0-7--------------|
------------------------|--------------------------------|
------------------------|--------------------------------|

  Fm            Bb7          Eb
------4~--------2~---6~---|----------------------|
----6---------3-----------|------8--8--10~-------|
--5---------3-------------|----------------------|
----------4---------------|----------------------|
--------------------------|----------------------|
--------------------------|----------------------|

  G7                             Cm
-----------------------7/-10--|--8~-------8--9--10--11--12--|
--8--7--6-----0-----8---------|-----------8--9--10--11--12--|
-----------7-----7------------|-----------8--9--10--11--12--|
------------------------------|-----------7--8--9---10--11--|
------------------------------|-----------------------------|
------------------------------|-----------------------------|

  Abm6                  Eb            Cm
--13--------1--------|----6--------------------------8~|
--13--------1--------|-------8------------------8-10---|
--13--------1--------|----------8-----0-------7--------|
--12-----------------|-------------8----0---9----------|
---------------------|--------------------9------------|
---------------------|---------------------------------|

  Fm              Bb7              Eb          Cm
--------------------------------|---------------------------|
------------------12----11------|------------------------8--|
------10--12--13----------------|-----------------8--10-----|
----------------------------12--|--13~-----13/-9------------|
--------------------------------|---------------------------|
--------------------------------|---------------------------|

  Fm         Bb7
-------------6~-------||
----------------------||
--8~---5--5-----------||
----------------------||
----------------------||
----------------------||