Dokken - In My Dreams Text Bass Tab

Learn the song with the online tablature player
Standard: EADG

I have heard alot of versions and I took the most accurate of each and here it is..

Intro
Bass enters after Guitar plays D Chord

G:-----------------------------------------------------------------------------------
D:-----------------------------------------------------------------------------------
A:-------77---55---3-5-77----------------------------77---55---3-5-------00----------
E:---------------------------------------------------------------------3-------------

Verse I

G:-----------------------------------------------------------------------------------
D:-----------------------------------------------------------------------------------
A:-----------------------------------3-7-55------------------------3---55------------
E:12\ ride--00000000000000000000000----------0000000000000000000-----3-------------

G:-----------------------------------------------------------------------------------
D:-----------------------------------------------------------------------------------
A:--7-----5-----4----------7-----5-----4----------7-----5-----4----------5-0----0---
E:----------------------------------------------------------------------------3---3-

Chorus

G:-----------------------------------------------------------------------------------
D:-----------------------------------------------------------------------------------
A:-----3--2--------3--2---------3--2-----------3--5------0-3h---5-=77--55--3-5-77----
E:---0------0----0------0-----0------0-------0---------------------------------------

Verse II

G:-----------------------------------------------------------------------------------
D:-----------------------------------------------------------------------------------
A:-----------------------------------3-7-55------------------------3---55------------
E:12\  ride--000000000000000000000-----------0000000000000000000-----3------------

G:-----------------------------------------------------------------------------------
D:-----------------------------------------------------------------------------------
A:--7-----5-----4----------7-----5-----4----------7-----5-----4----------5-0----0---
E:----------------------------------------------------------------------------3---3-

Chorus

G:-----------------------------------------------------------------------------------
D:-----------------------------------------------------------------------------------
A:-----3--2--------3--2---------3--2-----------3----5--------------------------------
E:---0------0----0------0-----0------0-------0---------------------------------------

During Lead

G:-----------------------------------------------------------------------------------
D:-----------------------------------------------------------------------------------
A:-----3--2--------3--2---------3--2-----------3----5--------------------------------
E:---0------0----0------0-----0------0-------0---------------------------------------

G:-----------------------------------------------------------------------------------
D:-----------------------------------------------------------------------------------
A:---------5-0---------------------5-0-----------------------5--0--5--0--------------
E:-0-----------0-----------0-----------0------------0--------------------------------

Guitar Intro Riff

G:-----------------------------------------------------------------------------------
D:-----------------------------------------------------------------------------------
A:----0-0------------3-2---------------3-2--------------3-2-------------3--5--0------
E:--3-------------0-------0--------0---------0-------0-------0-------0---------------

Vocal Break

Play over and over till outro....

G:-----------------------------------------------------------------------------------
D:-----------------------------------------------------------------------------------
A:-----3--2--------3--2---------3--2-----------3----5---0----------------------------
E:---0------0----0------0-----0------0-------0---------------------------------------

Outro

G:-----------------------------------------------------------------------------------
D:-----------------------------------------------------------------------------------
A:----------33333333333333333---5555555555555555555---000000000000-------------------
E:0000000000------------------------------------------------------0000000000000000000