Dragonforce - Through The Fire And Flames Text Guitar Tab

Learn the song with the online tablature player
Symbol Legend:
_______________
Duration Legend

W - whole
H - half
Q - quarter
E - 8th
S - 16th
T - 32nd
X - 64th
. - note dotted
|-n-|  - n-tuplets

L - tied note
x - dead note
g - grace note
(n) - ghost note
> - accentuded note
NH - natural harmonic
AH - artificial harmonic
TH - tapped harmonic
SH - semi harmonic
PH - pitch harmonic
h - hammer on
p - pull off
b - bend
br - bendRelease
pb - preBend
pbr - preBendRelease
brb - bendReleaseBend
\n/ - tremolo bar dip
\n - tremolo bar dive
-/n - tremolo bar Release up
/n\ - tremolo bar inverted dip
/n - tremolo bar return
-\n - tremolo bar Release down
S - shift slide
s - legato slide
/ -  slide into from below or out of upwards
\ -  slide into from above or out of downwards
~ - vibrato
W - wide vibrato
tr - trill
TP - tremolo picking
T - tapping
S - slap
P - pop
< - fade in
^ - brush up
v - brush down

Lead Guitar 1:

                          (Blank Bars Are Rests, Go See Rhythm Guitar's)

     W                   W                   W
E||-------------------|-------------------|-------------------|
B||-------------------|-------------------|-------------------|
G||-------------------|-------------------|-------------------|
D||-------------------|-------------------|-------------------|
A||-------------------|-------------------|-------------------|
E||-------------------|-------------------|-------------------|

  W                   W                   W                   W
-------------------|-------------------|-------------------|-------------------|
-------------------|-------------------|-------------------|-------------------|
-------------------|-------------------|-------------------|-------------------|
-------------------|-------------------|-------------------|-------------------|
-------------------|-------------------|-------------------|-------------------|
-------------------|-------------------|-------------------|-------------------|

  W                   W                   W                   W
-------------------|-------------------|-------------------|-------------------|
-------------------|-------------------|-------------------|-------------------|
-------------------|-------------------|-------------------|-------------------|
-------------------|-------------------|-------------------|-------------------|
-------------------|-------------------|-------------------|-------------------|
-------------------|-------------------|-------------------|-------------------|

  W                   W                   W                   W
-------------------|-------------------|-------------------|-------------------|
-------------------|-------------------|-------------------|-------------------|
-------------------|-------------------|-------------------|-------------------|
-------------------|-------------------|-------------------|-------------------|
-------------------|-------------------|-------------------|-------------------|
-------------------|-------------------|-------------------|-------------------|

  W                    S  S  S  S S S  S  S  S  S S S  S  S S S
-------------------|--11-11-11-11-8-8-11-11-11-11-8-8-11-11-8-8-|
-------------------|--------------------------------------------|
-------------------|--------------------------------------------|
-------------------|--------------------------------------------|
-------------------|--------------------------------------------|
-------------------|--------------------------------------------|

   S  S  S  S S S  S  S  S  S S S  S  S S S
--11-11-11-11-8-8-11-11-11-11-8-8-11-11-8-8-|
--------------------------------------------|
--------------------------------------------|
--------------------------------------------|
--------------------------------------------|
--------------------------------------------|

   S  S  S  S  S  S  S  S  S  S  S  S  S  S  S  S
--15-15-15-15-11-11-15-15-15-15-11-11-15-15-11-11-|
--------------------------------------------------|
--------------------------------------------------|
--------------------------------------------------|
--------------------------------------------------|
--------------------------------------------------|

   S  S  S  S  S  S  S  S  S  S  S  S  S  S  S  S
--15-15-15-15-11-11-15-15-15-15-11-11-15-15-11-11-|
--------------------------------------------------|
--------------------------------------------------|
--------------------------------------------------|
--------------------------------------------------|
--------------------------------------------------|

   S  S  S  S S S  S  S  S  S S S  S  S S S
--13-13-13-13-8-8-13-13-13-13-8-8-13-13-8-8-|
--------------------------------------------|
--------------------------------------------|
--------------------------------------------|
--------------------------------------------|
--------------------------------------------|

   S  S  S  S S S  S  S  S  S S S  S  S S S
--13-13-13-13-8-8-13-13-13-13-8-8-13-13-8-8-|
--------------------------------------------|
--------------------------------------------|
--------------------------------------------|
--------------------------------------------|
--------------------------------------------|

   S  S  S  S S S  S  S  S  S S S  S  S S S
--11-11-11-11-8-8-11-11-11-11-8-8-11-11-8-8-|
--------------------------------------------|
--------------------------------------------|
--------------------------------------------|
--------------------------------------------|
--------------------------------------------|

  S  S  S  S  S  S  S  S   E    E    Q
--8-10-11-13-10-11-13-15-/11--/13--/15~----|
-------------------------------------------|
-------------------------------------------|
-------------------------------------------|
-------------------------------------------|
-------------------------------------------|

   S  S  S  S S S  S  S  S  S S S  S  S S S
--11-11-11-11-8-8-11-11-11-11-8-8-11-11-8-8-|
--------------------------------------------|
--------------------------------------------|
--------------------------------------------|
--------------------------------------------|
--------------------------------------------|

   S  S  S  S S S  S  S  S  S S S  S  S S S
--11-11-11-11-8-8-11-11-11-11-8-8-11-11-8-8-|
--------------------------------------------|
--------------------------------------------|
--------------------------------------------|
--------------------------------------------|
--------------------------------------------|

   S  S  S  S  S  S  S  S  S  S  S  S  S  S  S  S
--15-15-15-15-11-11-15-15-15-15-11-11-15-15-11-11-|
--------------------------------------------------|
--------------------------------------------------|
--------------------------------------------------|
--------------------------------------------------|
--------------------------------------------------|

   S  S  S  S  S  S  S  S  S  S  S  S  S  S  S  S
--15-15-15-15-11-11-15-15-15-15-11-11-15-15-11-11-|
--------------------------------------------------|
--------------------------------------------------|
--------------------------------------------------|
--------------------------------------------------|
--------------------------------------------------|

   S  S  S  S S S  S  S  S  S S S  S  S S S
--13-13-13-13-8-8-13-13-13-13-8-8-13-13-8-8-|
--------------------------------------------|
--------------------------------------------|
--------------------------------------------|
--------------------------------------------|
--------------------------------------------|

   S  S  S  S S S  S  S  S  S S S  S  S S S
--13-13-13-13-8-8-13-13-13-13-8-8-13-13-8-8-|
--------------------------------------------|
--------------------------------------------|
--------------------------------------------|
--------------------------------------------|
--------------------------------------------|

                                                /1
   S  S S S S S  S S   S  S S S S S  S S        W
--11p-8------------8--11p-8------------8-|--<>(16)----------------|
--------9---8-9-11----------9---8-9-11---|------------------------|
----------8-------------------8----------|------------------------|
-----------------------------------------|------------------------|
-----------------------------------------|------------------------|
-----------------------------------------|------------------------|

  W                   W                   W                   W
-------------------|-------------------|-------------------|-------------------|
-------------------|-------------------|-------------------|-------------------|
-------------------|-------------------|-------------------|-------------------|
-------------------|-------------------|-------------------|-------------------|
-------------------|-------------------|-------------------|-------------------|
-------------------|-------------------|-------------------|-------------------|

  W                   W                   W                   W
-------------------|-------------------|-------------------|-------------------|
-------------------|-------------------|-------------------|-------------------|
-------------------|-------------------|-------------------|-------------------|
-------------------|-------------------|-------------------|-------------------|
-------------------|-------------------|-------------------|-------------------|
-------------------|-------------------|-------------------|-------------------|

  W                   W                   W                   W
-------------------|-------------------|-------------------|-------------------|
-------------------|-------------------|-------------------|-------------------|
-------------------|-------------------|-------------------|-------------------|
-------------------|-------------------|-------------------|-------------------|
-------------------|-------------------|-------------------|-------------------|
-------------------|-------------------|-------------------|-------------------|

  W                   W                   W                   W
-------------------|-------------------|-------------------|-------------------|
-------------------|-------------------|-------------------|-------------------|
-------------------|-------------------|-------------------|-------------------|
-------------------|-------------------|-------------------|-------------------|
-------------------|-------------------|-------------------|-------------------|
-------------------|-------------------|-------------------|-------------------|

  W                   W                   W                   W
-------------------|-------------------|-------------------|-------------------|
-------------------|-------------------|-------------------|-------------------|
-------------------|-------------------|-------------------|-------------------|
-------------------|-------------------|-------------------|-------------------|
-------------------|-------------------|-------------------|-------------------|
-------------------|-------------------|-------------------|-------------------|

  W                   W                   W                   W
-------------------|-------------------|-------------------|-------------------|
-------------------|-------------------|-------------------|-------------------|
-------------------|-------------------|-------------------|-------------------|
-------------------|-------------------|-------------------|-------------------|
-------------------|-------------------|-------------------|-------------------|
-------------------|-------------------|-------------------|-------------------|

  E  E  E  E  E  E  E  E     E  E  E  E  E  E  E  E
--------------------------|--------------------------|
--9--------8--------6-----|--9--------8--------6-----|
-----5--5-----5--5-----5--|-----5--5-----5--5-----5--|
--------------------------|--------------------------|
--------------------------|--------------------------|
--------------------------|--------------------------|

   T    T    T    T    T    T    T    T
   S S  S S  S S  S S  S S  S S  S S  S S
--11-8-11-8-11-8-11-8-11-8-11-8-11-8-11-8-|
------------------------------------------|
------------------------------------------|
------------------------------------------|
------------------------------------------|
------------------------------------------|

   T    T    T    T    T    T    T    T
   S S  S S  S S  S S  S S  S S  S S  S S    E  E  E  E  E  E  E  E
--11-8-11-8-11-8-11-8-11-8-11-8-11-8-11-8-|--------------------------|
------------------------------------------|--9--------8--------6-----|
------------------------------------------|-----8--8-----8--8-----8--|
------------------------------------------|--------------------------|
------------------------------------------|--------------------------|
------------------------------------------|--------------------------|

  E  E  E  E  E  E  E  E      W
--------------------------|--------------------|
--9--------8--------6-----|--11----------------|
-----8--8-----8--8-----8--|--------------------|
--------------------------|--------------------|
--------------------------|--------------------|
--------------------------|--------------------|

  E    E    E    E    E    E    E    E     W
--8S--10S--11S--13S--15S--16S--18S--23--|-------------------|
----------------------------------------|-------------------|
----------------------------------------|-------------------|
----------------------------------------|-------------------|
----------------------------------------|-------------------|
----------------------------------------|-------------------|

  W                   W                   W                   W
-------------------|-------------------|-------------------|-------------------|
-------------------|-------------------|-------------------|-------------------|
-------------------|-------------------|-------------------|-------------------|
-------------------|-------------------|-------------------|-------------------|
-------------------|-------------------|-------------------|-------------------|
-------------------|-------------------|-------------------|-------------------|

  W                   W                   W                   W
-------------------|-------------------|-------------------|-------------------|
-------------------|-------------------|-------------------|-------------------|
-------------------|-------------------|-------------------|-------------------|
-------------------|-------------------|-------------------|-------------------|
-------------------|-------------------|-------------------|-------------------|
-------------------|-------------------|-------------------|-------------------|

  W                   E  E  E  E  E  E  E  E      W
-------------------|--------------------------|--------------------|
-------------------|--8--------6--------8-----|--11----------------|
-------------------|-----8--8-----8--8-----8--|--------------------|
-------------------|--------------------------|--------------------|
-------------------|--------------------------|--------------------|
-------------------|--------------------------|--------------------|

  S S S S S S S S S S S S S S S S    S S S S S S S S S S S S S S S S
----------6-6-8-8---------6-6-8-8-|----------6-6-8-8---------6-6-8-8-|
--6-6-9-9---------6-6-9-9---------|--6-6-9-9---------6-6-9-9---------|
----------------------------------|----------------------------------|
----------------------------------|----------------------------------|
----------------------------------|----------------------------------|
----------------------------------|----------------------------------|

  W                      W                    W
--6----------------|-----------------------|-------------------|
-------------------|-----------------------|-------------------|
-------------------|--<>10b----------------|-------------------|
-------------------|-----------------------|-------------------|
-------------------|-----------------------|-------------------|
-------------------|-----------------------|-------------------|

  W                   W                   W                   W
-------------------|-------------------|-------------------|-------------------|
-------------------|-------------------|-------------------|-------------------|
-------------------|-------------------|-------------------|-------------------|
-------------------|-------------------|-------------------|-------------------|
-------------------|-------------------|-------------------|-------------------|
-------------------|-------------------|-------------------|-------------------|

  W                   W                   W                   W
-------------------|-------------------|-------------------|-------------------|
-------------------|-------------------|-------------------|-------------------|
-------------------|-------------------|-------------------|-------------------|
-------------------|-------------------|-------------------|-------------------|
-------------------|-------------------|-------------------|-------------------|
-------------------|-------------------|-------------------|-------------------|

  W                   W                   W                   W
-------------------|-------------------|-------------------|-------------------|
-------------------|-------------------|-------------------|-------------------|
-------------------|-------------------|-------------------|-------------------|
-------------------|-------------------|-------------------|-------------------|
-------------------|-------------------|-------------------|-------------------|
-------------------|-------------------|-------------------|-------------------|

                                                           PM PM
  W                   E  Q    E  E  E  E  E     E  Q    E  E  E    Q
-------------------|-------------------------|-------------------<>6----|
-------------------|--8--8----6--8--6--------|--8--8-------6--8---------|
-------------------|-------------------8--5--|----------8---------------|
-------------------|-------------------------|--------------------------|
-------------------|-------------------------|--------------------------|
-------------------|-------------------------|--------------------------|

  E  Q    S S S S S S S S S S    E  E   E     H         E
----------------------6-6-----|--6--8--10--<>11~--------L--|
--8--8----6-6-8-8-9-9-----8-8-|----------------------------|
------------------------------|----------------------------|
------------------------------|----------------------------|
------------------------------|----------------------------|
------------------------------|----------------------------|

    E  E  E    Q    E  E   E         E   E   E   E  E    E   S   S  E
--<>6------------------6--11--|--/<>15--11--15--16-----/18--16p-15-----|
-------8----------------------|------------------------------------16--|
----------8--<>8----8---------|----------------------------------------|
------------------------------|----------------------------------------|
------------------------------|----------------------------------------|
------------------------------|----------------------------------------|

    E   E    E    E   E   E   E    E
--/23--23s--18S--23--23--18--23s--18--|
--------------------------------------|
--------------------------------------|
--------------------------------------|
--------------------------------------|
--------------------------------------|

   T     T     T     T     T     T     T
   S  S  S  S  S  S  S  S  S  S  S  S  S  S   E
--18-16-18-16-18-16-18-16-18-15-20-16-18-15s-11--|
-------------------------------------------------|
-------------------------------------------------|
-------------------------------------------------|
-------------------------------------------------|
-------------------------------------------------|

  E  Q    S S S S S S S S S S    E  Q    E   E   E    Q
------------------------------|----------------------------|
--8--8----6-6-8-8-6-6---------|--8--8----6--/8--/9--/11----|
----------------------8-8-5-5-|----------------------------|
------------------------------|----------------------------|
------------------------------|----------------------------|
------------------------------|----------------------------|

   T    T    T   T   T   T   T   T
   S S  S S  S S S S S S S S S S S S     E  E   E     H         E
--11-6-11-6-11-6-8-4-8-4-8-4-6-4-6-4-|--/6--8--10--<>11~--------L--|
-------------------------------------|-----------------------------|
-------------------------------------|-----------------------------|
-------------------------------------|-----------------------------|
-------------------------------------|-----------------------------|
-------------------------------------|-----------------------------|

  E  Q    S S E  E  E  E     E  Q    S S E   E     Q
--6--6--------6-----------|--6--6--------6--11--<>11----|
----------8-9----9--8-----|----------8-9----------------|
-----------------------8--|-----------------------------|
--------------------------|-----------------------------|
--------------------------|-----------------------------|
--------------------------|-----------------------------|

   T     T     T     T     T     T     T     T
   S  S  S  S  S  S  S  S  S  S  S  S  S  S  S  S
--23-18-23-18-23-18-23-16-23-18-23-16-23-18-23-18-|
--------------------------------------------------|
--------------------------------------------------|
--------------------------------------------------|
--------------------------------------------------|
--------------------------------------------------|

    E   S  S   Q      E.    E.    E        Q.      H        E
--/16--16-16-/18----/16---/15---/10--|--<>15~------------------|
-------------------------------------|-------------------------|
-------------------------------------|-------------------------|
-------------------------------------|-------------------------|
-------------------------------------|-------------------------|
-------------------------------------|-------------------------|

  W                   W                   W                   W
-------------------|-------------------|-------------------|-------------------|
-------------------|-------------------|-------------------|-------------------|
-------------------|-------------------|-------------------|-------------------|
-------------------|-------------------|-------------------|-------------------|
-------------------|-------------------|-------------------|-------------------|
-------------------|-------------------|-------------------|-------------------|

  W                   W                   W                   W
-------------------|-------------------|-------------------|-------------------|
-------------------|-------------------|-------------------|-------------------|
-------------------|-------------------|-------------------|-------------------|
-------------------|-------------------|-------------------|-------------------|
-------------------|-------------------|-------------------|-------------------|
-------------------|-------------------|-------------------|-------------------|

  W                   W                   W                   W
-------------------|-------------------|-------------------|-------------------|
-------------------|-------------------|-------------------|-------------------|
-------------------|-------------------|-------------------|-------------------|
-------------------|-------------------|-------------------|-------------------|
-------------------|-------------------|-------------------|-------------------|
-------------------|-------------------|-------------------|-------------------|

  W                   W                   W                   W
-------------------|-------------------|-------------------|-------------------|
-------------------|-------------------|-------------------|-------------------|
-------------------|-------------------|-------------------|-------------------|
-------------------|-------------------|-------------------|-------------------|
-------------------|-------------------|-------------------|-------------------|
-------------------|-------------------|-------------------|-------------------|

  W                   E  E  E  E  E  E  E  E     E  E  E  E  E  E  E  E
-------------------|--------------------------|--------------------------|
-------------------|--9--------8--------6-----|--9--------8--------6-----|
-------------------|-----5--5-----5--5-----5--|-----5--5-----5--5-----5--|
-------------------|--------------------------|--------------------------|
-------------------|--------------------------|--------------------------|
-------------------|--------------------------|--------------------------|

   T    T    T    T    T    T    T    T
   S S  S S  S S  S S  S S  S S  S S  S S
--11-8-11-8-11-8-11-8-11-8-11-8-11-8-11-8-|
------------------------------------------|
------------------------------------------|
------------------------------------------|
------------------------------------------|
------------------------------------------|

   T    T    T    T    T    T    T    T
   S S  S S  S S  S S  S S  S S  S S  S S    E  E  E  E  E  E  E  E
--11-8-11-8-11-8-11-8-11-8-11-8-11-8-11-8-|--------------------------|
------------------------------------------|--9--------8--------6-----|
------------------------------------------|-----8--8-----8--8-----8--|
------------------------------------------|--------------------------|
------------------------------------------|--------------------------|
------------------------------------------|--------------------------|

  E  E  E  E  E  E  E  E      W                   W
--------------------------|--------------------|-------------------|
--9--------8--------6-----|--11----------------|-------------------|
-----8--8-----8--8-----8--|--------------------|-------------------|
--------------------------|--------------------|-------------------|
--------------------------|--------------------|-------------------|
--------------------------|--------------------|-------------------|

  W                   W                   W                   W
-------------------|-------------------|-------------------|-------------------|
-------------------|-------------------|-------------------|-------------------|
-------------------|-------------------|-------------------|-------------------|
-------------------|-------------------|-------------------|-------------------|
-------------------|-------------------|-------------------|-------------------|
-------------------|-------------------|-------------------|-------------------|

  W                   W                   W                   W
-------------------|-------------------|-------------------|-------------------|
-------------------|-------------------|-------------------|-------------------|
-------------------|-------------------|-------------------|-------------------|
-------------------|-------------------|-------------------|-------------------|
-------------------|-------------------|-------------------|-------------------|
-------------------|-------------------|-------------------|-------------------|

  W                   W                   E  E  E  E  E  E  E  E
-------------------|-------------------|--------------------------|
-------------------|-------------------|--8--------6--------8-----|
-------------------|-------------------|-----8--8-----8--8-----8--|
-------------------|-------------------|--------------------------|
-------------------|-------------------|--------------------------|
-------------------|-------------------|--------------------------|

  W                   S S S S S S S S S S S S S S S S
-------------------|----------6-6-8-8---------6-6-8-8-|
-------------------|--6-6-9-9---------6-6-9-9---------|
-------------------|----------------------------------|
-------------------|----------------------------------|
-------------------|----------------------------------|
-------------------|----------------------------------|

  S S S S S S S S S S S S S S S S    W                   W
----------6-6-8-8---------6-6-8-8-|--6----------------|-------------------|
--6-6-9-9---------6-6-9-9---------|-------------------|-------------------|
----------------------------------|-------------------|-------------------|
----------------------------------|-------------------|-------------------|
----------------------------------|-------------------|-------------------|
----------------------------------|-------------------|-------------------|

  W                   W                   W                   W
-------------------|-------------------|-------------------|-------------------|
-------------------|-------------------|-------------------|-------------------|
-------------------|-------------------|-------------------|-------------------|
-------------------|-------------------|-------------------|-------------------|
-------------------|-------------------|-------------------|-------------------|
-------------------|-------------------|-------------------|-------------------|

  W                   W                   W                   W
-------------------|-------------------|-------------------|-------------------|
-------------------|-------------------|-------------------|-------------------|
-------------------|-------------------|-------------------|-------------------|
-------------------|-------------------|-------------------|-------------------|
-------------------|-------------------|-------------------|-------------------|
-------------------|-------------------|-------------------|-------------------|

  W                   W                   W                   W
-------------------|-------------------|-------------------|-------------------|
-------------------|-------------------|-------------------|-------------------|
-------------------|-------------------|-------------------|-------------------|
-------------------|-------------------|-------------------|-------------------|
-------------------|-------------------|-------------------|-------------------|
-------------------|-------------------|-------------------|-------------------|

  W                   W                   E  Q    E  E  E  E  E
-------------------|-------------------|-------------------------|
-------------------|-------------------|--8--8----6--8--6--------|
-------------------|-------------------|-------------------8--5--|
-------------------|-------------------|-------------------------|
-------------------|-------------------|-------------------------|
-------------------|-------------------|-------------------------|

             PM PM
  E  Q    E  E  E    Q        E   E  E   E   E   E   E   E
-------------------<>6----|--11--11--L--10--11--13--15--11--|
--8--8-------6--8---------|---------------------------------|
----------8---------------|---------------------------------|
--------------------------|---------------------------------|
--------------------------|---------------------------------|
--------------------------|---------------------------------|

   E   E   E   E  H             E  E  E    Q    E  E   E
--15--13--11--13--L--------|--<>6------------------6--11--|
---------------------------|-------8----------------------|
---------------------------|----------8--<>8----8---------|
---------------------------|------------------------------|
---------------------------|------------------------------|
---------------------------|------------------------------|

      E   E   E   E  E    E   S   S  E      E   E  E   E   E  E  E  E
--/<>15--11--15--16-----/18--16p-15-----|--11--11--6--11--11--6--------|
------------------------------------16--|------------------------9--8--|
----------------------------------------|------------------------------|
----------------------------------------|------------------------------|
----------------------------------------|------------------------------|
----------------------------------------|------------------------------|

  E  E    E  E  B           E  E  E  E  E  E  E  E
--6----------------------|--------------------------|
-----8-------6--L--------|-----6--8--6--8--6--------|
--------<>8--------------|--------------------8--5--|
-------------------------|--------------------------|
-------------------------|--------------------------|
-------------------------|--------------------------|

                                T    T    T    T    T    T    T    T
  E  E  E  E  E  E    Q         S S  S S  S S  S S  S S  S S  S S  S S
--------------------<>6~----|--11-6-11-6-11-6--------------------------|
-----6--8--6--8--9----------|-----------------13-9-13-9-13-9-11-8-11-8-|
----------------------------|------------------------------------------|
----------------------------|------------------------------------------|
----------------------------|------------------------------------------|
----------------------------|------------------------------------------|

   E  E   E     H         E      E   E  E   S  S  E   E   E   E
--/6--8--10--<>11~--------L--|--15--15--L--15-13-15--13----------|
-----------------------------|---------------------------16--13--|
-----------------------------|-----------------------------------|
-----------------------------|-----------------------------------|
-----------------------------|-----------------------------------|
-----------------------------|-----------------------------------|

   E   E  E   S  S  E   E   Q
--15--15--L--13-15-13--15--20----|
---------------------------------|
---------------------------------|
---------------------------------|
---------------------------------|
---------------------------------|

   S   S  S  S  S   S  S   S  S  S  S   S  S   S  S  S
--18p-15----15-16p-13-15p-11----11-15p-11-13p-10----10-|
---------16------------------13------------------11----|
-------------------------------------------------------|
-------------------------------------------------------|
-------------------------------------------------------|
-------------------------------------------------------|

    E   S  S   Q      E.    E.    E        Q.      H        E
--/16--16-16-/18----/16---/15---/10--|--<>15~------------------|
-------------------------------------|-------------------------|
-------------------------------------|-------------------------|
-------------------------------------|-------------------------|
-------------------------------------|-------------------------|
-------------------------------------|-------------------------|

  W                   H         H            H        H
-------------------|-----------11--------|--10--------8--------|
-------------------|---------------------|---------------------|
-------------------|---------------------|---------------------|
-------------------|---------------------|---------------------|
-------------------|---------------------|---------------------|
-------------------|---------------------|---------------------|

  B         B            B         B           B         B
-----------15--------|--13--------11--------|-----------11--------|
---------------------|----------------------|---------------------|
---------------------|----------------------|---------------------|
---------------------|----------------------|---------------------|
---------------------|----------------------|---------------------|
---------------------|----------------------|---------------------|

   Q.      Q.      Q       W                   H.           Q
--10------11------10----|--8----------------|--L-----------------|
------------------------|-------------------|--------------------|
------------------------|-------------------|--------------------|
------------------------|-------------------|--------------------|
------------------------|-------------------|--------------------|
------------------------|-------------------|--------------------|

  B         B            B        B           B         B
-----------11--------|--10--------8--------|-----------15--------|
---------------------|---------------------|---------------------|
---------------------|---------------------|---------------------|
---------------------|---------------------|---------------------|
---------------------|---------------------|---------------------|
---------------------|---------------------|---------------------|

   H         H           H         H            Q.      Q.      Q
--13--------11--------|-----------11--------|--10------11------10----|
----------------------|---------------------|------------------------|
----------------------|---------------------|------------------------|
----------------------|---------------------|------------------------|
----------------------|---------------------|------------------------|
----------------------|---------------------|------------------------|

  W                   H.           Q       W
--8----------------|--L-----------------|-------------------|
-------------------|--------------------|-------------------|
-------------------|--------------------|-------------------|
-------------------|--------------------|-------------------|
-------------------|--------------------|-------------------|
-------------------|--------------------|-------------------|

   S   S  S  S  S  S  S   S  S   S  S  S  S  S  S  S
-----------------------------------------------------|
--11h-13-13-13-13-13-11h-13-16p-13-13-13-13-13-13-13-|
-----------------------------------------------------|
-----------------------------------------------------|
-----------------------------------------------------|
-----------------------------------------------------|

   S  S  S  S  S  S  S  S  S  S  S  S  S  S  S  S
--15-15-15-13-13-13-11-11-13-13-13-11-11-11-------|
--------------------------------------------15-15-|
--------------------------------------------------|
--------------------------------------------------|
--------------------------------------------------|
--------------------------------------------------|

   S   S  S  S  S  S  S   S  S   S  S  S  S  S  S  S
-----------------------------------------------------|
--11h-13-13-13-13-13-11h-13-16p-13-13-13-13-13-13-13-|
-----------------------------------------------------|
-----------------------------------------------------|
-----------------------------------------------------|
-----------------------------------------------------|

   S  S  S  S  S  S  S  S  S  S  S  S  S  S  S  S
--15-15-15-13-13-13-11-11-13-13-13-11-11-11-------|
--------------------------------------------15-15-|
--------------------------------------------------|
--------------------------------------------------|
--------------------------------------------------|
--------------------------------------------------|

   S   S  S  S  S  S  S   S  S   S  S  S  S  S  S  S
-----------------------------------------------------|
--11h-13-13-13-13-13-11h-13-16p-13-13-13-13-13-13-13-|
-----------------------------------------------------|
-----------------------------------------------------|
-----------------------------------------------------|
-----------------------------------------------------|

   S  S  S  S  S  S  S  S  S  S  S  S  S  S  S  S
--15-15-15-13-13-13-11-11-13-13-13-11-11-11-------|
--------------------------------------------15-15-|
--------------------------------------------------|
--------------------------------------------------|
--------------------------------------------------|
--------------------------------------------------|

   S   S  S  S  S  S  S   S  S   S  S  S  S  S  S  S
-----------------------------------------------------|
--11h-13-13-13-13-13-11h-13-16p-13-13-13-13-13-13-13-|
-----------------------------------------------------|
-----------------------------------------------------|
-----------------------------------------------------|
-----------------------------------------------------|

   S  S  S  S  S  S  S  S  S  S  S  S  S  S  S  S    E   E  E  E  E  E  Q
--15-15-15-13-13-13-11-11-13-13-13-11-11-11-------|--------------------------|
--------------------------------------------15-15-|--6b--8--L--9--8--6-------|
--------------------------------------------------|---------------------8----|
--------------------------------------------------|--------------------------|
--------------------------------------------------|--------------------------|
--------------------------------------------------|--------------------------|

  E  E  E  E  S S  S S Q       S  S S  S  S   S  S   S  S   S  S   S S  S S  S
----------------------------|--6s-8-6s-8-11s-13-11s-13-13s-15-13s-15-6s-8-6s-8-|
--6--6--L--8--6-------------|--------------------------------------------------|
----------------8p-5---5----|--------------------------------------------------|
---------------------8------|--------------------------------------------------|
----------------------------|--------------------------------------------------|
----------------------------|--------------------------------------------------|

  S S  S  S S S  S  S  S  S S  S S  S    E     E  E  E  S S    E.  E.  E
--8-8-----------------------8----8-11-<>11--|--8--8--L--6-8-<>11---6-------|
------11-11-6-6-11-11-11-11---11------------|--------------------------8s--|
--------------------------------------------|------------------------------|
--------------------------------------------|------------------------------|
--------------------------------------------|------------------------------|
--------------------------------------------|------------------------------|

   E.  E.  E  S  S  S  S Q       S S S S S  S  S S S S S S S  S  S S
------------------------------|--------------------------------------|
--11---8------6h-8p-6h-8------|--8-8-8-6-8-11p-8-6-8-8-8-6-8-11p-8-6-|
-----------8-------------5----|--------------------------------------|
------------------------------|--------------------------------------|
------------------------------|--------------------------------------|
------------------------------|--------------------------------------|

                             \1/
   S  S  S  S  S   S   S  S  H
--11----11-13-15p-13p-11--------------|
-----11------------------13-----------|
----------------------------15--------|
--------------------------------------|
--------------------------------------|
--------------------------------------|

   S   S  S  S  S  S  S   S  S   S  S  S  S  S  S  S
-----------------------------------------------------|
--11h-13-13-13-13-13-11h-13-16p-13-13-13-13-13-13-13-|
-----------------------------------------------------|
-----------------------------------------------------|
-----------------------------------------------------|
-----------------------------------------------------|

   S  S  S  S  S  S  S  S  S  S  S  S  S  S  S  S
--15-15-15-13-13-13-11-11-13-13-13-11-11-11-------|
--------------------------------------------15-15-|
--------------------------------------------------|
--------------------------------------------------|
--------------------------------------------------|
--------------------------------------------------|

   S   S  S  S  S  S  S   S  S   S  S  S  S  S  S  S
-----------------------------------------------------|
--11h-13-13-13-13-13-11h-13-16p-13-13-13-13-13-13-13-|
-----------------------------------------------------|
-----------------------------------------------------|
-----------------------------------------------------|
-----------------------------------------------------|

   S  S  S  S  S  S  S  S  S  S  S  S  S  S  S  S
--15-15-15-13-13-13-11-11-13-13-13-11-11-11-------|
--------------------------------------------15-15-|
--------------------------------------------------|
--------------------------------------------------|
--------------------------------------------------|
--------------------------------------------------|

   S   S  S  S  S  S  S   S  S   S  S  S  S  S  S  S
-----------------------------------------------------|
--11h-13-13-13-13-13-11h-13-16p-13-13-13-13-13-13-13-|
-----------------------------------------------------|
-----------------------------------------------------|
-----------------------------------------------------|
-----------------------------------------------------|

   S  S  S  S  S  S  S  S  S  S  S  S  S  S  S  S
--15-15-15-13-13-13-11-11-13-13-13-11-11-11-------|
--------------------------------------------15-15-|
--------------------------------------------------|
--------------------------------------------------|
--------------------------------------------------|
--------------------------------------------------|

   S   S  S  S  S  S  S   S  S   S  S  S  S  S  S  S
-----------------------------------------------------|
--11h-13-13-13-13-13-11h-13-16p-13-13-13-13-13-13-13-|
-----------------------------------------------------|
-----------------------------------------------------|
-----------------------------------------------------|
-----------------------------------------------------|

   S  S  S  S  S  S  S  S  S  S  S  S  S  S  S  S
--15-15-15-13-13-13-11-11-13-13-13-11-11-11-------|
--------------------------------------------15-15-|
--------------------------------------------------|
--------------------------------------------------|
--------------------------------------------------|
--------------------------------------------------|

  S S S S   E  S S E  E  E    E     E.  E.  E    H
---------------------------------|-------------------------|
---------------------------------|-------------------------|
--5-5-5-5-<>8--5-5-7--------<>7--|-------------<>7b--------|
----------------------8--5-------|--5---6---8--------------|
---------------------------------|-------------------------|
---------------------------------|-------------------------|

  S S S S S S S S S S S S S S S S    S S S S S S S S S S S S   Q
----------------------------------|--------------------------<>6~----|
--------------------------9-8-6-8-|------------6-8-9-8-6-8-9---------|
------5-7-8-7-5-7-5---7-8---------|--5---5-7-8-----------------------|
--7-8---------------8-------------|----8-----------------------------|
----------------------------------|----------------------------------|
----------------------------------|----------------------------------|

  E.    E.  E  E.    E.  E     S   S S   S  Q     S  S  S  Q    S
------<>6-------------------|--------------13----13-11-10-11------|
--8---------8--6---<>8---6--|-------------------------------------|
----------------------------|--8s-10-8s-10------------------------|
----------------------------|-------------------------------------|
----------------------------|-------------------------------------|
----------------------------|-------------------------------------|

   S  S  S  S S S  S S S S S S S S S S    S S S S S S S S S S S S S  S S  S
--13----15----8---10-------------------|--------------------------8-11-8-11-|
-----13----13---8----8-9-6-------------|------------------6---6-8-----------|
---------------------------8-5-8---5---|------5---5-8-5-8---8---------------|
---------------------------------8---8-|--5-8---8---------------------------|
---------------------------------------|------------------------------------|
---------------------------------------|------------------------------------|

   E   S  S  E   E   E   E   E   E      E   S  S  E   E   E   E   Q
--15--15-15-15--13--------------13--|--15--15-15-15--13------18--15----|
--------------------16--13--16------|--------------------16------------|
------------------------------------|----------------------------------|
------------------------------------|----------------------------------|
------------------------------------|----------------------------------|
------------------------------------|----------------------------------|

   E   S  S  E   E   E   E   E   E
--15--15-15-15--13--------------13--|
--------------------16--13--16------|
------------------------------------|
------------------------------------|
------------------------------------|
------------------------------------|

   S   S   S  S  S  S  S  S  S   S  S  S    Q
--13h-15p-13----------13-15-18p-15----15-<>15----|
-------------16-13-16--------------18------------|
-------------------------------------------------|
-------------------------------------------------|
-------------------------------------------------|
-------------------------------------------------|

   E   S  S  E   E   E   E   E   E      E   S  S  E   E   E   E   Q
--15--15-15-15--13--------------13--|--15--15-15-15--13------18--15----|
--------------------16--13--16------|--------------------16------------|
------------------------------------|----------------------------------|
------------------------------------|----------------------------------|
------------------------------------|----------------------------------|
------------------------------------|----------------------------------|

   E   S  S  E   E   E   E   E   E
--15--15-15-15--13--------------13--|
--------------------16--13--16------|
------------------------------------|
------------------------------------|
------------------------------------|
------------------------------------|

   S   S  S  S  S  S  S   S E   E   E   E
--15p-13----------13-15p-13-8--11--13--15--|
---------16-13-16--------------------------|
----------------------------5---8--10--12--|
-------------------------------------------|
-------------------------------------------|
-------------------------------------------|

   S   S  S  S  S  S  S   S  E   E   E  E     W
--15p-13----------13--------15--13--11--8--|-------------------|
---------16-13-16----16p-13----------------|-------------------|
----------------------------12--10---8--5--|-------------------|
-------------------------------------------|-------------------|
-------------------------------------------|-------------------|
-------------------------------------------|-------------------|

   S  S  S  S  S  S  S  S  S  S  S  S  S  S  S  S
--------------------------------------------------|
--------------------------------------------------|
--------------------------------------12----12-13-|
--13-12----12----------------12-13-15----15-------|
--------15----15-11----11-15----------------------|
--------------------15----------------------------|

   S  S  S  S  S. S. S  S  S  S  S  Q
-------------------------------------------|
--------13----13-15-16-15-16-18-16-18b~----|
--12-13----15------------------------------|
-------------------------------------------|
-------------------------------------------|
-------------------------------------------|

   S  S  S  S  S  S  S  S  S  S  S  S  S  S  S  S
--13----------------------13----13-15-13-15-16----|
-----16-15-13----13-15-16----16----------------18-|
--------------13----------------------------------|
--------------------------------------------------|
--------------------------------------------------|
--------------------------------------------------|

   S  S  S  S  S  S  S  S  H
--16-15-18-15-------------18b~--------|
--------------18-16-15-16-------------|
--------------------------------------|
--------------------------------------|
--------------------------------------|
--------------------------------------|

                                             W  W
   S  S  S  S  S  S  S  S  S  S  S  S  S  S  S  S
--20-18-20-16-20-15-13-------------13-15-16-18-18-|
-----------------------16-15-13-15----------------|
--------------------------------------------------|
--------------------------------------------------|
--------------------------------------------------|
--------------------------------------------------|

   S  S  S  S  S  S  S  S  S  S  S  S  Q
--18-16-18-15-18-13----------------13-16~----|
--------------------16-15-13-15-16-----------|
---------------------------------------------|
---------------------------------------------|
---------------------------------------------|
---------------------------------------------|

   S  S  S  S  S  S  S  S  S  S  S  S  S  S  S  S
--------13----13-15-13----13----------------------|
--13-16----16----------16----16-15-16-15-13-------|
--------------------------------------------15-12-|
--------------------------------------------------|
--------------------------------------------------|
--------------------------------------------------|

   S  S  S  S  S  S  S  S  S  S  S  S  S  S  S  S
--------------------------------------------------|
--------------------------------------------13-15-|
--13-15-13-12----------------------12-13-15-------|
--------------15-13-12----12-13-15----------------|
-----------------------15-------------------------|
--------------------------------------------------|

   Q     E    Q     E   E   E      E    E   E    E   E    E    Q
--20----18S--23----18--20--18--|--20S--18--15S--13-----------/15----|
-------------------------------|--------------------13S--11---------|
-------------------------------|------------------------------------|
-------------------------------|------------------------------------|
-------------------------------|------------------------------------|
-------------------------------|------------------------------------|

   E   E   E    E   E   E    Q           E     E   E   E   E    E   Q
--22--22s--6--/23--22--20s--18----|--/<>13--<>13--\1--15--13s--20--20----|
----------------------------------|--------------------------------------|
----------------------------------|--------------------------------------|
----------------------------------|--------------------------------------|
----------------------------------|--------------------------------------|
----------------------------------|--------------------------------------|

      (Octave pedal/Harmonizer)
      W                        W    W    W    W  W  W   W    W    W    W    W
      S                        S    S    S    S  S  S   S    S    S    S    S
-------------------------------------------<>16-----------<>16----------------<>
--------------------------------------<>17---------------------<>17------<>17---
---------------------------------<>17-------------------------------<>17--------
--/<>15---------------------<>18------------------------------------------------

    W  W   W  W   W    W    W    W    W  T    W    W    T
    S  S   S  S   S    S    S    S    S  S    S    S    Q
---------/15-20s-15---------------------20-----------<>20~----|
------16------------<>16------<>16--------------<>16----------|
--/17--------------------<>17------<>17----<>17---------------|
--------------------------------------------------------------|
--------------------------------------------------------------|
--------------------------------------------------------------|

     T         T         T                   T         T         T
     S    S    S    S    S    S    S    S    S    S    S    S    S    S    S
--<>20-<>15-<>20-<>15-<>20-<>15-<>13-<>15-<>20-<>15-<>20-<>15-<>20-<>15-<>13-<>1

                                             tap bend
     T         T         T                          T
     S    S    S    S    S    S    S    S    Q      Q
--<>20-<>15-<>20-<>15-<>20-<>15-<>13-<>15-<>17b-----L----|
---------------------------------------------------------|
---------------------------------------------------------|
---------------------------------------------------------|
---------------------------------------------------------|
---------------------------------------------------------|

   S. S. S  S  S  S  S  S  S  S  S  S  S  S  S      E   Q     E   E   E   Q
-----------------------------------10-12-13-15-|--/18--18----20--18------------|
-----------------------------11-13-------------|---------------------20--16----|
-----------------10-12-10-12-------------------|-------------------------------|
-----------10-12-------------------------------|-------------------------------|
--10-11-13-------------------------------------|-------------------------------|
-----------------------------------------------|-------------------------------|

   T        T        T        T        T        T        T        T
   |--3--|  |--3--|  |--3--|  |--3--|  |--3--|  |--3--|  |--3--|  |--3--|
   S  S  S  S  S  S  S  S  S  S  S  S  S  S  S  S  S  S  S  S  S  S  S  S
--20-15-11-20-11-15-20-15-11-20-11-15-20-15-11-20-11-15-20-15-11-20-11-15-|
--------------------------------------------------------------------------|
--------------------------------------------------------------------------|
--------------------------------------------------------------------------|
--------------------------------------------------------------------------|
--------------------------------------------------------------------------|

   S  S  S  S  E   E    E    E   E   E
--20-20-20-20-18--15s--18s--15------15--|
--------------------------------18------|
----------------------------------------|
----------------------------------------|
----------------------------------------|
----------------------------------------|

   T     T     T     T     T     T     T     T     T     T     T     T     T
   T  T  T  T  T  T  T  T  T  T  T  T  T  T  T  T  T  T  T  T  T  T  T  T  T  T
--20-11-20-11-18-11-18-11-20-11-20-11-16-11-16-11-20-11-20-11-18-11-18-11-20-11-

   S   S  S  S  S  S  S  S  S  S  S  S  E   E
--20p-16----------------16-18-16-18-20-23------|
---------16----------16--------------------21--|
------------17----17---------------------------|
---------------18------------------------------|
-----------------------------------------------|
-----------------------------------------------|

   S  S  S  S  S  S  S  S  H               S S  S  S  S  S  S  S  H
-----18----18----22----22-22pbr--------|----------------------10-16pbr~--------|
--18----18----18----18-----------------|-------------10-11-13------------------|
---------------------------------------|-----8-10-12---------------------------|
---------------------------------------|--12-----------------------------------|
---------------------------------------|---------------------------------------|
---------------------------------------|---------------------------------------|

   H           Q.        S  S     E   E   E   E   Q.      S   S
------------------------------|---------------------------------|
--18b~--------18b~------18-16-|--18--16-------------------------|
------------------------------|----------17--15~--L-------------|
------------------------------|--------------------------15h-17-|
------------------------------|---------------------------------|
------------------------------|---------------------------------|

   E   E   E   E   E   E   E   E      E   E   E   E     B
----------------------------------|-------------------------------|
----------------------------------|------16--18------<>16~--------|
--15--------------------------15--|--17----------15---------------|
------17--16--15------15--17------|-------------------------------|
------------------18--------------|-------------------------------|
----------------------------------|-------------------------------|

  Q     Q     E  E   E   E      Q.        Q     Q     E
-------15----16-----18--16--|--18br------18----16----15--|
----------------------------|----------------------------|
----------------------------|----------------------------|
----------------------------|----------------------------|
----------------------------|----------------------------|
----------------------------|----------------------------|

   E    E   E   E   E   E   E   E     Q     E   E   E.     S  Q
--16p--15--------------------------|-------------------------------|
-----------16--------------18--16--|--L----18--16--18br---16-------|
---------------15------15----------|-------------------------15----|
-------------------17--------------|-------------------------------|
-----------------------------------|-------------------------------|
-----------------------------------|-------------------------------|

   E   E   E   E  E   E   E   E     E   E   E   E   S   S  S  S  Q
------18-------------15----------|---------11--13--15p-13----13-18----|
--16------16--13--L------13--11--|--9--11-----------------16----------|
---------------------------------|------------------------------------|
---------------------------------|------------------------------------|
---------------------------------|------------------------------------|
---------------------------------|------------------------------------|

     whammy bar
     Q          Q        Q        Q         Q.       H          E
----------------------------------------|--13b------15br--------L--|
----------------------------------------|--------------------------|
--<>15b---------------------------------|--------------------------|
-------------<>15b----<>13b-------------|--------------------------|
-------------------------------<>15b----|--------------------------|
----------------------------------------|--------------------------|

                     |--3--|                    |--3--|
   S  S  S  S  S  S  S  S  S  S  S  S  S  S  S  S  S  S
--20-16----------16-20-16----20-16----------16-20-16----|
--------20-16-20----------20-------20-16-20----------20-|
--------------------------------------------------------|
--------------------------------------------------------|
--------------------------------------------------------|
--------------------------------------------------------|

               T        T        T
   S  S  S  S  S  S  S  S  S  S  S  S  E   E
--20-16---------------------------------------|
--------20-16---------------------------------|
--------------19-17-15------------------------|
-----------------------18-15-13-15-18-17--15--|
----------------------------------------------|
----------------------------------------------|

   E   S  S  S  S  S  S  S  S  S  S  S  S  S  S
---------------18-16-15-------------------------|
------------16----------18-16-15----------------|
---------15----------------------17-15-13-------|
------17----------------------------------17-15-|
--18--------------------------------------------|
------------------------------------------------|

   S  S  S  S  S  S  S  S  S  S  S  S  S  S  E       Q.      Q       E.  S  E
------------------------------------------------|------------------------------|
-----------------13-15-16-15-13----------13-15--|--/16------16----<>13-----13--|
--------12-13-15----------------15-13-15--------|------------------------------|
--13-15-----------------------------------------|------------------------------|
------------------------------------------------|------------------------------|
------------------------------------------------|------------------------------|

   E   E  E     Q      Q     E      S   S  S  S  S   S   S  S  H
------13-----<>15~--------------|----------------------------------------|
--16------------------16----15--|--13p-11--------------------------------|
--------------------------------|---------12----10h-12p-10----10b--------|
--------------------------------|------------13------------13------------|
--------------------------------|----------------------------------------|
--------------------------------|----------------------------------------|

   E  E   E    E   B             E   E   E   E   E   E   E   E
----------------------------|--/15--15--11--15--15--11--15--11--|
----------------------------|-----------------------------------|
--10--8--12--<>8~--L--------|-----------------------------------|
----------------------------|-----------------------------------|
----------------------------|-----------------------------------|
----------------------------|-----------------------------------|

   E   E  E   E  E   E     Q
--15--16-----15-----11--<>11~----|
---------------------------------|
---------------------------------|
---------------------------------|
---------------------------------|
---------------------------------|

   S  S  S  S  S  S  S  S  S  S  S  S  S  S  S  S
--------------------------------------------------|
--------------------------------------------------|
--------------12-------12-13----12-13-15-12-13-15-|
--------13-15----13-15-------15-------------------|
--15-17-------------------------------------------|
--------------------------------------------------|

   T     T                 T     T
   S  S  S  S  S  S  S  S  S  S  S  S  S  S  S  S
--------------15-13-------------------18-15-------|
--16-13-18-13-------16-13-18-15-20-15-------16-13-|
--------------------------------------------------|
--------------------------------------------------|
--------------------------------------------------|
--------------------------------------------------|

   S  S  S  S  S  S  S  S  S  S  S  S  S  S  S  S
--------------------------------------------------|
--------------------------------------------------|
--20-20-------22-22-------24-24-------22-22-------|
--------22-22-------22-22-------22-22-------22-22-|
--------------------------------------------------|
--------------------------------------------------|

   T       T       T       T       T       T       T       T
   |--3-|  |--3-|  |--3-|  |--3-|  |--3-|  |--3-|  |--3-|  |--3-|
   S  S S  S  S S  S  S S  S  S S  S  S S  S  S S  S  S S  S  S S
--16-11-8-16-11-8-16-11-8-16-11-8-16-11-8-16-11-8-16-11-8-16-11-8-|
------------------------------------------------------------------|
------------------------------------------------------------------|
------------------------------------------------------------------|
------------------------------------------------------------------|
------------------------------------------------------------------|

   S  S  S  S  S  S  S  S  S  S  S  S  S  S  S  S
-----------11-13-15-13-11-13-11-------------------|
--13-11-13----------------------13-11----------11-|
--------------------------------------12-10-12----|
--------------------------------------------------|
--------------------------------------------------|
--------------------------------------------------|

   S  S  S  S  S  S  S  S  S  S  S  S    Q         E   E   E   E  E   Q     E
----------------------------------------------|--/11--10--11--10---------------|
--13-13-11----11-11---------------------------|----------------------11----11--|
-----------12-------12-12-10-12-10------------|--------------------------------|
-----------------------------------13-<>13----|--------------------------------|
----------------------------------------------|--------------------------------|
----------------------------------------------|--------------------------------|

     Q.         E   E   E     Q
------------------------------------|
--<>15brb---------------------------|
---------------12--10---------------|
-----------------------13--<>13~----|
------------------------------------|
------------------------------------|

                           T  W  T  W  T  W  T  W
   S  S  S  S  S  S  S  S  S  S  S  S  S  S  S  S
--------------------------------------------------|
--------------------------------------------------|
--------------12-13-15-17-17-12-17-12-17-12-17-12-|
-----12-13-15-------------------------------------|
--15----------------------------------------------|
--------------------------------------------------|

   whammy bar dive
   T                     T        T        T        T        T        T        T
   |---------3--------|  |--3--|  |--3--|  |--3--|  |--3--|  |--3--|  |--3--|  |
   S               S  S  S  S  S  S  S  S  S  S  S  S  S  S  S  S  S  S  S  S  S
--20--------------16-15-20-16-15-20-16-15-20-16-15-20-16-15-20-16-15-20-16-15-20

  W                   W                   W                   W
-------------------|-------------------|-------------------|-------------------|
-------------------|-------------------|-------------------|-------------------|
-------------------|-------------------|-------------------|-------------------|
-------------------|-------------------|-------------------|-------------------|
-------------------|-------------------|-------------------|-------------------|
-------------------|-------------------|-------------------|-------------------|

  W                   W                   W                   W
-------------------|-------------------|-------------------|-------------------|
-------------------|-------------------|-------------------|-------------------|
-------------------|-------------------|-------------------|-------------------|
-------------------|-------------------|-------------------|-------------------|
-------------------|-------------------|-------------------|-------------------|
-------------------|-------------------|-------------------|-------------------|

  W                   W                   W                   W
-------------------|-------------------|-------------------|-------------------|
-------------------|-------------------|-------------------|-------------------|
-------------------|-------------------|-------------------|-------------------|
-------------------|-------------------|-------------------|-------------------|
-------------------|-------------------|-------------------|-------------------|
-------------------|-------------------|-------------------|-------------------|

  W                   W
-------------------|-------------------|
-------------------|-------------------|
-------------------|-------------------|
-------------------|-------------------|
-------------------|-------------------|
-------------------|-------------------|

     S  S    S   S    S  S    S   S    S  S    S   S    S  S    S S
--<>15-15s-<>3-<>3-<>15-15s-<>3-<>3-<>15-15s-<>3-<>3-<>15-15s-<>3-3s-|
---------------------------------------------------------------------|
---------------------------------------------------------------------|
---------------------------------------------------------------------|
---------------------------------------------------------------------|
---------------------------------------------------------------------|

   H.           Q       W                   W
--15-----------------|-------------------|-------------------|
---------------------|-------------------|-------------------|
---------------------|-------------------|-------------------|
---------------------|-------------------|-------------------|
---------------------|-------------------|-------------------|
---------------------|-------------------|-------------------|

  W                   W                   W                   W
-------------------|-------------------|-------------------|-------------------|
-------------------|-------------------|-------------------|-------------------|
-------------------|-------------------|-------------------|-------------------|
-------------------|-------------------|-------------------|-------------------|
-------------------|-------------------|-------------------|-------------------|
-------------------|-------------------|-------------------|-------------------|

  W                   W                   W                   W
-------------------|-------------------|-------------------|-------------------|
-------------------|-------------------|-------------------|-------------------|
-------------------|-------------------|-------------------|-------------------|
-------------------|-------------------|-------------------|-------------------|
-------------------|-------------------|-------------------|-------------------|
-------------------|-------------------|-------------------|-------------------|

  W                   W                   W                   W
-------------------|-------------------|-------------------|-------------------|
-------------------|-------------------|-------------------|-------------------|
-------------------|-------------------|-------------------|-------------------|
-------------------|-------------------|-------------------|-------------------|
-------------------|-------------------|-------------------|-------------------|
-------------------|-------------------|-------------------|-------------------|

   S  S  S  S S S  S  S  S  S S S  S  S S S
--11-11-11-11-8-8-11-11-11-11-8-8-11-11-8-8-|
--------------------------------------------|
--------------------------------------------|
--------------------------------------------|
--------------------------------------------|
--------------------------------------------|

   S  S  S  S S S  S  S  S  S S S  S  S S S
--11-11-11-11-8-8-11-11-11-11-8-8-11-11-8-8-|
--------------------------------------------|
--------------------------------------------|
--------------------------------------------|
--------------------------------------------|
--------------------------------------------|

   S  S  S  S  S  S  S  S  S  S  S  S  S  S  S  S
--15-15-15-15-11-11-15-15-15-15-11-11-15-15-11-11-|
--------------------------------------------------|
--------------------------------------------------|
--------------------------------------------------|
--------------------------------------------------|
--------------------------------------------------|

   S  S  S  S  S  S  S  S  S  S  S  S  S  S  S  S
--15-15-15-15-11-11-15-15-15-15-11-11-15-15-11-11-|
--------------------------------------------------|
--------------------------------------------------|
--------------------------------------------------|
--------------------------------------------------|
--------------------------------------------------|

   S  S  S  S S S  S  S  S  S S S  S  S S S
--13-13-13-13-8-8-13-13-13-13-8-8-13-13-8-8-|
--------------------------------------------|
--------------------------------------------|
--------------------------------------------|
--------------------------------------------|
--------------------------------------------|

   S  S  S  S S S  S  S  S  S S S  S  S S S
--13-13-13-13-8-8-13-13-13-13-8-8-13-13-8-8-|
--------------------------------------------|
--------------------------------------------|
--------------------------------------------|
--------------------------------------------|
--------------------------------------------|

   S  S  S  S S S  S  S  S  S S S  S  S S S
--11-11-11-11-8-8-11-11-11-11-8-8-11-11-8-8-|
--------------------------------------------|
--------------------------------------------|
--------------------------------------------|
--------------------------------------------|
--------------------------------------------|

  S  S  S S  S S  S S  S  S  S S  S S  S S
-------------------------------------------|
-------------------------------------------|
----------8----8-10-8-10-12-10-8-10-8------|
--8-10-12---12------------------------10-8-|
-------------------------------------------|
-------------------------------------------|

   S  S  S  S S S  S  S  S  S S S  S  S S S
--11-11-11-11-8-8-11-11-11-11-8-8-11-11-8-8-|
--------------------------------------------|
--------------------------------------------|
--------------------------------------------|
--------------------------------------------|
--------------------------------------------|

   S  S  S  S S S  S  S  S  S S S  S  S S S
--11-11-11-11-8-8-11-11-11-11-8-8-11-11-8-8-|
--------------------------------------------|
--------------------------------------------|
--------------------------------------------|
--------------------------------------------|
--------------------------------------------|

   S  S  S  S  S  S  S  S  S  S  S  S  S  S  S  S
--15-15-15-15-11-11-15-15-15-15-11-11-15-15-11-11-|
--------------------------------------------------|
--------------------------------------------------|
--------------------------------------------------|
--------------------------------------------------|
--------------------------------------------------|

   S  S  S  S  S  S  S  S  S  S  S  S  S  S  S  S
--15-15-15-15-11-11-15-15-15-15-11-11-15-15-11-11-|
--------------------------------------------------|
--------------------------------------------------|
--------------------------------------------------|
--------------------------------------------------|
--------------------------------------------------|

   S  S  S  S S S  S  S  S  S S S  S  S S S
--13-13-13-13-8-8-13-13-13-13-8-8-13-13-8-8-|
--------------------------------------------|
--------------------------------------------|
--------------------------------------------|
--------------------------------------------|
--------------------------------------------|

   S  S  S  S S S  S  S  S  S S S  S  S S S
--13-13-13-13-8-8-13-13-13-13-8-8-13-13-8-8-|
--------------------------------------------|
--------------------------------------------|
--------------------------------------------|
--------------------------------------------|
--------------------------------------------|

               |---3---|
   S  S  S  S  S   S   S  S  S  S  S  S  S  S  S  S  S
--------------15h-16p-15-------------------------------|
-----------16------------16----16----------------------|
--------17------------------17----17----17-------------|
-----17------------------------------17----17----17----|
--18------------------------------------------18----18-|
-------------------------------------------------------|

                           |---3--|  |---3--|  |---3--|
   S  S  S  S  S  S  S  S  S   S  S  S   S  S  S   S  S  S   S
--------------------15----16p-15----16p-15----16p-15----16p-15-|
--------------16-------16--------16--------16--------16--------|
-----------17----17--------------------------------------------|
--------17-----------------------------------------------------|
--15-18--------------------------------------------------------|
---------------------------------------------------------------|

   PM  PM  PM  PM  PM  PM  PM  PM     PM  PM  PM  PM  PM  PM  PM  PM
   E   E   E   E   E   E   E   E      E   E   E   E   E   E   E   E
--15--18--18--15--18--18--15--18--|--18--15--15--18--18--15----------|
----------------------------------|--------------------------18--16--|
----------------------------------|----------------------------------|
----------------------------------|----------------------------------|
----------------------------------|----------------------------------|
----------------------------------|----------------------------------|

   PM  PM  PM  PM  PM  PM  PM  PM     PM  PM  PM  PM  PM  PM  PM  PM
   E   E   E   E   E   E   E   E      E   E   E   E   E   E   E   E
--13--15--15--13--15--15--13--15--|--15--13--15--15--16--15--13------|
----------------------------------|------------------------------16--|
----------------------------------|----------------------------------|
----------------------------------|----------------------------------|
----------------------------------|----------------------------------|
----------------------------------|----------------------------------|

   E   E   E   E  E   E  E   E     E   E  E   E   E   E   E  E
--13--13--13--13-----13-----13--|-----13-----13--13--13--13-----|
--------------------------------|-------------------------------|
--------------------------------|-------------------------------|
--------------------------------|-------------------------------|
--------------------------------|-------------------------------|
--------------------------------|-------------------------------|

   S   S   S   S   S   S   S   S   S   S   S   S   S   S   S   S
--18p-15h-18p-15h-18p-15h-18p-15h-18p-15h-18p-15h-18p-15h-18p-15-|
-----------------------------------------------------------------|
-----------------------------------------------------------------|
-----------------------------------------------------------------|
-----------------------------------------------------------------|
-----------------------------------------------------------------|

   S   S   S   S   S   S   S   S   S   S   S   S   S   S   S   S
--18p-15h-18p-15h-18p-15h-18p-15h-18p-15h-18p-15h-18p-15h-18p-15-|
-----------------------------------------------------------------|
-----------------------------------------------------------------|
-----------------------------------------------------------------|
-----------------------------------------------------------------|
-----------------------------------------------------------------|

   S   S   S   S   S   S   S   S   S   S   S   S   S   S   S   S
--18p-15h-18p-15h-18p-15h-18p-15h-18p-15h-18p-15h-18p-15h-18p-15-|
-----------------------------------------------------------------|
-----------------------------------------------------------------|
-----------------------------------------------------------------|
-----------------------------------------------------------------|
-----------------------------------------------------------------|

   S   S   S   S   S   S   S   S   S   S   S   S   S   S   S   S
--18p-15h-18p-15h-18p-15h-18p-15h-18p-15h-18p-15h-18p-15h-18p-15-|
-----------------------------------------------------------------|
-----------------------------------------------------------------|
-----------------------------------------------------------------|
-----------------------------------------------------------------|
-----------------------------------------------------------------|

   S   S   S   S   S   S   S   S   S   S   S   S   S   S   S   S
--18p-15h-18p-15h-18p-15h-18p-15h-18p-15h-18p-15h-18p-15h-18p-15-|
-----------------------------------------------------------------|
-----------------------------------------------------------------|
-----------------------------------------------------------------|
-----------------------------------------------------------------|
-----------------------------------------------------------------|

   S   S   S   S   S   S   S   S   S   S   S   S   S   S   S   S
--18p-15h-18p-15h-18p-15h-18p-15h-18p-15h-18p-15h-18p-15h-18p-15-|
-----------------------------------------------------------------|
-----------------------------------------------------------------|
-----------------------------------------------------------------|
-----------------------------------------------------------------|
-----------------------------------------------------------------|

   PM  PM  PM  PM  PM  PM  PM  PM
   E   E   E   E   E   E   E   E        B         B
--16--15--13------15--13----------|--<>15b--------------------|
--------------16----------16--15--|---------------------------|
--13--12--10------12--10----------|---------------7pbr--------|
--------------13----------13--12--|---------------------------|
----------------------------------|---------------------------|
----------------------------------|---------------------------|

                       |-----3-----|
   S   S   E   E   E   Q     Q     Q          Q.      H        E
--11h-13p-11----------------------------|-------------------------||
--------------13--11--------11----13----|--<>13~------------------||
----------------------12----------------|-------------------------||
----------------------------------------|-------------------------||
----------------------------------------|-------------------------||
----------------------------------------|-------------------------||

_____________________________________________________________________________
_____________________________________________________________________________
_____________________________________________________________________________
_____________________________________________________________________________
_____________________________________________________________________________
_____________________________________________________________________________
_____________________________________________________________________________
_____________________________________________________________________________
_____________________________________________________________________________
_____________________________________________________________________________
_____________________________________________________________________________
_____________________________________________________________________________

Lead Guitar 2:

     W                   W                   W
E||-------------------|-------------------|-------------------|
B||-------------------|-------------------|-------------------|
G||-------------------|-------------------|-------------------|
D||-------------------|-------------------|-------------------|
A||-------------------|-------------------|-------------------|
E||-------------------|-------------------|-------------------|

  W                   W                   W                   W
-------------------|-------------------|-------------------|-------------------|
-------------------|-------------------|-------------------|-------------------|
-------------------|-------------------|-------------------|-------------------|
-------------------|-------------------|-------------------|-------------------|
-------------------|-------------------|-------------------|-------------------|
-------------------|-------------------|-------------------|-------------------|

  W                   W                   W                   W
-------------------|-------------------|-------------------|-------------------|
-------------------|-------------------|-------------------|-------------------|
-------------------|-------------------|-------------------|-------------------|
-------------------|-------------------|-------------------|-------------------|
-------------------|-------------------|-------------------|-------------------|
-------------------|-------------------|-------------------|-------------------|

  W                   W                   W                   W
-------------------|-------------------|-------------------|-------------------|
-------------------|-------------------|-------------------|-------------------|
-------------------|-------------------|-------------------|-------------------|
-------------------|-------------------|-------------------|-------------------|
-------------------|-------------------|-------------------|-------------------|
-------------------|-------------------|-------------------|-------------------|

  W                    S  S  S  S S S  S  S  S  S S S  S  S S S
-------------------|--------------------------------------------|
-------------------|--13-13-13-13-8-8-13-13-13-13-8-8-13-13-8-8-|
-------------------|--------------------------------------------|
-------------------|--------------------------------------------|
-------------------|--------------------------------------------|
-------------------|--------------------------------------------|

   S  S  S  S S S  S  S  S  S S S  S  S S S
--------------------------------------------|
--13-13-13-13-8-8-13-13-13-13-8-8-13-13-8-8-|
--------------------------------------------|
--------------------------------------------|
--------------------------------------------|
--------------------------------------------|

   S  S  S  S  S  S  S  S  S  S  S  S  S  S  S  S
--------------------------------------------------|
--16-16-16-16-13-13-16-16-16-16-13-13-16-16-13-13-|
--------------------------------------------------|
--------------------------------------------------|
--------------------------------------------------|
--------------------------------------------------|

   S  S  S  S  S  S  S  S  S  S  S  S  S  S  S  S
--------------------------------------------------|
--16-16-16-16-13-13-16-16-16-16-13-13-16-16-13-13-|
--------------------------------------------------|
--------------------------------------------------|
--------------------------------------------------|
--------------------------------------------------|

   S  S  S  S S S  S  S  S  S S S  S  S S S
--------------------------------------------|
--13-13-13-13-9-9-13-13-13-13-9-9-13-13-9-9-|
--------------------------------------------|
--------------------------------------------|
--------------------------------------------|
--------------------------------------------|

   S  S  S  S S S  S  S  S  S S S  S  S S S
--------------------------------------------|
--13-13-13-13-9-9-13-13-13-13-9-9-13-13-9-9-|
--------------------------------------------|
--------------------------------------------|
--------------------------------------------|
--------------------------------------------|

   S  S  S  S S S  S  S  S  S S S  S  S S S
--------------------------------------------|
--13-13-13-13-8-8-13-13-13-13-8-8-13-13-8-8-|
--------------------------------------------|
--------------------------------------------|
--------------------------------------------|
--------------------------------------------|

  S  S  S  S  S  S  S  S   E    E    Q
-------------------------------------------|
--8-11-13-15-11-13-15-16-/13--/15--/16~----|
-------------------------------------------|
-------------------------------------------|
-------------------------------------------|
-------------------------------------------|

   S  S  S  S S S  S  S  S  S S S  S  S S S
--------------------------------------------|
--13-13-13-13-8-8-13-13-13-13-8-8-13-13-8-8-|
--------------------------------------------|
--------------------------------------------|
--------------------------------------------|
--------------------------------------------|

   S  S  S  S S S  S  S  S  S S S  S  S S S
--------------------------------------------|
--13-13-13-13-8-8-13-13-13-13-8-8-13-13-8-8-|
--------------------------------------------|
--------------------------------------------|
--------------------------------------------|
--------------------------------------------|

   S  S  S  S  S  S  S  S  S  S  S  S  S  S  S  S
--------------------------------------------------|
--16-16-16-16-13-13-16-16-16-16-13-13-16-16-13-13-|
--------------------------------------------------|
--------------------------------------------------|
--------------------------------------------------|
--------------------------------------------------|

   S  S  S  S  S  S  S  S  S  S  S  S  S  S  S  S
--------------------------------------------------|
--16-16-16-16-13-13-16-16-16-16-13-13-16-16-13-13-|
--------------------------------------------------|
--------------------------------------------------|
--------------------------------------------------|
--------------------------------------------------|

   S  S  S  S S S  S  S  S  S S S  S  S S S
--------------------------------------------|
--13-13-13-13-9-9-13-13-13-13-9-9-13-13-9-9-|
--------------------------------------------|
--------------------------------------------|
--------------------------------------------|
--------------------------------------------|

   S  S  S  S S S  S  S  S  S S S  S  S S S
--------------------------------------------|
--13-13-13-13-9-9-13-13-13-13-9-9-13-13-9-9-|
--------------------------------------------|
--------------------------------------------|
--------------------------------------------|
--------------------------------------------|

                                                    /1
   S  S  S  S S  S  S S   S  S  S  S S  S  S S      W
-----------------------------------------------|----------------------|
--13p-9---------------9--13p-9---------------9-|--(18)----------------|
--------10----8-10-12----------10----8-10-12---|----------------------|
-----------10---------------------10-----------|--(15)----------------|
-----------------------------------------------|----------------------|
-----------------------------------------------|----------------------|

  W                   W                   W                   W
-------------------|-------------------|-------------------|-------------------|
-------------------|-------------------|-------------------|-------------------|
-------------------|-------------------|-------------------|-------------------|
-------------------|-------------------|-------------------|-------------------|
-------------------|-------------------|-------------------|-------------------|
-------------------|-------------------|-------------------|-------------------|

  W                   W                   W                   W
-------------------|-------------------|-------------------|-------------------|
-------------------|-------------------|-------------------|-------------------|
-------------------|-------------------|-------------------|-------------------|
-------------------|-------------------|-------------------|-------------------|
-------------------|-------------------|-------------------|-------------------|
-------------------|-------------------|-------------------|-------------------|

  W                   W                   W                   W
-------------------|-------------------|-------------------|-------------------|
-------------------|-------------------|-------------------|-------------------|
-------------------|-------------------|-------------------|-------------------|
-------------------|-------------------|-------------------|-------------------|
-------------------|-------------------|-------------------|-------------------|
-------------------|-------------------|-------------------|-------------------|

  W                   W                   W                   W
-------------------|-------------------|-------------------|-------------------|
-------------------|-------------------|-------------------|-------------------|
-------------------|-------------------|-------------------|-------------------|
-------------------|-------------------|-------------------|-------------------|
-------------------|-------------------|-------------------|-------------------|
-------------------|-------------------|-------------------|-------------------|

  W                   W                   W                   W
-------------------|-------------------|-------------------|-------------------|
-------------------|-------------------|-------------------|-------------------|
-------------------|-------------------|-------------------|-------------------|
-------------------|-------------------|-------------------|-------------------|
-------------------|-------------------|-------------------|-------------------|
-------------------|-------------------|-------------------|-------------------|

  W                   W                   W                   W
-------------------|-------------------|-------------------|-------------------|
-------------------|-------------------|-------------------|-------------------|
-------------------|-------------------|-------------------|-------------------|
-------------------|-------------------|-------------------|-------------------|
-------------------|-------------------|-------------------|-------------------|
-------------------|-------------------|-------------------|-------------------|

   E  E  E  E  E  E  E  E      E  E  E  E  E  E  E  E
---------------------------|---------------------------|
---------------------------|---------------------------|
--10--------8--------7-----|--10--------8--------7-----|
------6--6-----6--6-----6--|------6--6-----6--6-----6--|
---------------------------|---------------------------|
---------------------------|---------------------------|

   T     T     T     T     T     T     T     T
   S  S  S  S  S  S  S  S  S  S  S  S  S  S  S  S
--15-11-15-11-15-11-15-11-15-11-15-11-15-11-15-11-|
--------------------------------------------------|
--------------------------------------------------|
--------------------------------------------------|
--------------------------------------------------|
--------------------------------------------------|

   T     T     T     T     T     T     T     T
   S  S  S  S  S  S  S  S  S  S  S  S  S  S  S  S
--15-11-15-11-15-11-15-11-15-11-15-11-15-11-15-11-|
--------------------------------------------------|
--------------------------------------------------|
--------------------------------------------------|
--------------------------------------------------|
--------------------------------------------------|

   E   E   E  E   E   E  E   E      E   E   E  E   E   E  E   E
--------------------------------|--------------------------------|
--------------------------------|--------------------------------|
--10----------8----------7------|--10----------8----------7------|
------10--10-----10--10-----10--|------10--10-----10--10-----10--|
--------------------------------|--------------------------------|
--------------------------------|--------------------------------|

   W                   E   E   E    E    E    E    E    E     W
--------------------|--------------------------------------|-------------------|
--------------------|--------------------------------------|-------------------|
--10----------------|--5S--7S--8S--10S--12S--13S--15S--20--|-------------------|
--------------------|--------------------------------------|-------------------|
--------------------|--------------------------------------|-------------------|
--------------------|--------------------------------------|-------------------|

  W                   W                   W                   W
-------------------|-------------------|-------------------|-------------------|
-------------------|-------------------|-------------------|-------------------|
-------------------|-------------------|-------------------|-------------------|
-------------------|-------------------|-------------------|-------------------|
-------------------|-------------------|-------------------|-------------------|
-------------------|-------------------|-------------------|-------------------|

  W                   W                   W                   W
-------------------|-------------------|-------------------|-------------------|
-------------------|-------------------|-------------------|-------------------|
-------------------|-------------------|-------------------|-------------------|
-------------------|-------------------|-------------------|-------------------|
-------------------|-------------------|-------------------|-------------------|
-------------------|-------------------|-------------------|-------------------|

  W                   E   E   E  E   E   E  E   E      W
-------------------|-------------------------------|--------------------|
-------------------|-------------------------------|--------------------|
-------------------|--8----------7----------8------|--12----------------|
-------------------|-----10--10-----10--10-----10--|--------------------|
-------------------|-------------------------------|--------------------|
-------------------|-------------------------------|--------------------|

  S S  S  S S S S S S S  S  S S S S S    S S  S  S S S S S S S  S  S S S S S
--------------------------------------|--------------------------------------|
------------8-8-9-9-----------8-8-9-9-|------------8-8-9-9-----------8-8-9-9-|
--5-5-10-10---------5-5-10-10---------|--5-5-10-10---------5-5-10-10---------|
--------------------------------------|--------------------------------------|
--------------------------------------|--------------------------------------|
--------------------------------------|--------------------------------------|

  W                    W                    W
-------------------|--16b----------------|-------------------|
--6----------------|---------------------|-------------------|
-------------------|---------------------|-------------------|
-------------------|---------------------|-------------------|
-------------------|---------------------|-------------------|
-------------------|---------------------|-------------------|

  W                   W                   W                   W
-------------------|-------------------|-------------------|-------------------|
-------------------|-------------------|-------------------|-------------------|
-------------------|-------------------|-------------------|-------------------|
-------------------|-------------------|-------------------|-------------------|
-------------------|-------------------|-------------------|-------------------|
-------------------|-------------------|-------------------|-------------------|

  W                   W                   W                   W
-------------------|-------------------|-------------------|-------------------|
-------------------|-------------------|-------------------|-------------------|
-------------------|-------------------|-------------------|-------------------|
-------------------|-------------------|-------------------|-------------------|
-------------------|-------------------|-------------------|-------------------|
-------------------|-------------------|-------------------|-------------------|

  W                   W                   W                   W
-------------------|-------------------|-------------------|-------------------|
-------------------|-------------------|-------------------|-------------------|
-------------------|-------------------|-------------------|-------------------|
-------------------|-------------------|-------------------|-------------------|
-------------------|-------------------|-------------------|-------------------|
-------------------|-------------------|-------------------|-------------------|

                                                            PM PM
  W                   E  Q    E  E  E  E  E     E  Q     E  E  E    Q
-------------------|-------------------------|---------------------------|
-------------------|-------------------------|--------------------<>8----|
-------------------|--8--8----7--8--7--------|--8--8--------7--8---------|
-------------------|-------------------8--5--|----------10---------------|
-------------------|-------------------------|---------------------------|
-------------------|-------------------------|---------------------------|

  E  Q    S S S S  S  S  S  S S S     E   E   E   H         E
----------------------------------|--------------13~--------L--|
----------------------------------|----------11----------------|
--8--8----7-7-8-8-10-10-12-12-8-8-|--12--12--------------------|
----------------------------------|----------------------------|
----------------------------------|----------------------------|
----------------------------------|----------------------------|

  E  E  E    Q    E  E   E         E   E   E   E  E    E   S   S  E
----------------------------|----------------------------------------|
--8------------------8--11--|--/<>16--11--16--18-----/20--18p-16-----|
-----8----------------------|------------------------------------15--|
--------8--<>8----8---------|----------------------------------------|
----------------------------|----------------------------------------|
----------------------------|----------------------------------------|

    E   E    E    E   E   E   E    E
--/18--18s--15S--18--18--15--18s--15--|
--------------------------------------|
--------------------------------------|
--------------------------------------|
--------------------------------------|
--------------------------------------|

   T     T     T     T     T     T     T
   S  S  S  S  S  S  S  S  S  S  S  S  S  S   E
-------------------------------------------------|
--20-18-20-18-20-18-20-18-20-16-21-18-20-16s-11--|
-------------------------------------------------|
-------------------------------------------------|
-------------------------------------------------|
-------------------------------------------------|

  E  Q    S S S S S S S S S S    E  Q    E   E    E    Q
------------------------------|-----------------------------|
------------------------------|-----------------------------|
--8--8----7-7-8-8-7-7---------|--8--8----7--/8--/10--/12----|
----------------------8-8-5-5-|-----------------------------|
------------------------------|-----------------------------|
------------------------------|-----------------------------|

   T    T    T   T   T   T   T   T
   S S  S S  S S S S S S S S S S S S      E   E   E   H         E
-------------------------------------|---------------13~--------L--|
--11-8-11-8-11-8-9-4-9-4-9-4-8-4-8-4-|-----------11----------------|
-------------------------------------|--/12--12--------------------|
-------------------------------------|-----------------------------|
-------------------------------------|-----------------------------|
-------------------------------------|-----------------------------|

  E  Q    S  S E   E  E  E     E  Q    S  S E   E     Q
----------------------------|------------------------------|
--8--8---------8------------|--8--8---------8--11--<>11----|
----------8-10----10--8-----|----------8-10----------------|
-------------------------8--|------------------------------|
----------------------------|------------------------------|
----------------------------|------------------------------|

   T     T     T     T     T     T     T     T
   S  S  S  S  S  S  S  S  S  S  S  S  S  S  S  S
--20-15-20-15-20-15-20-13-20-15-20-13-20-15-20-15-|
--------------------------------------------------|
--------------------------------------------------|
--------------------------------------------------|
--------------------------------------------------|
--------------------------------------------------|

    E   S  S   Q      E.    E.    E        Q.      H        E
-------------------------------------|-------------------------|
--/18--18-18-/20----/18---/16---/11--|--<>16~------------------|
-------------------------------------|-------------------------|
-------------------------------------|-------------------------|
-------------------------------------|-------------------------|
-------------------------------------|-------------------------|

  W                   W                   W                   W
-------------------|-------------------|-------------------|-------------------|
-------------------|-------------------|-------------------|-------------------|
-------------------|-------------------|-------------------|-------------------|
-------------------|-------------------|-------------------|-------------------|
-------------------|-------------------|-------------------|-------------------|
-------------------|-------------------|-------------------|-------------------|

  W                   W                   W                   W
-------------------|-------------------|-------------------|-------------------|
-------------------|-------------------|-------------------|-------------------|
-------------------|-------------------|-------------------|-------------------|
-------------------|-------------------|-------------------|-------------------|
-------------------|-------------------|-------------------|-------------------|
-------------------|-------------------|-------------------|-------------------|

  W                   W                   W                   W
-------------------|-------------------|-------------------|-------------------|
-------------------|-------------------|-------------------|-------------------|
-------------------|-------------------|-------------------|-------------------|
-------------------|-------------------|-------------------|-------------------|
-------------------|-------------------|-------------------|-------------------|
-------------------|-------------------|-------------------|-------------------|

  W                   W                   W                   W
-------------------|-------------------|-------------------|-------------------|
-------------------|-------------------|-------------------|-------------------|
-------------------|-------------------|-------------------|-------------------|
-------------------|-------------------|-------------------|-------------------|
-------------------|-------------------|-------------------|-------------------|
-------------------|-------------------|-------------------|-------------------|

  W                    E  E  E  E  E  E  E  E      E  E  E  E  E  E  E  E
-------------------|---------------------------|---------------------------|
-------------------|---------------------------|---------------------------|
-------------------|--10--------8--------7-----|--10--------8--------7-----|
-------------------|------6--6-----6--6-----6--|------6--6-----6--6-----6--|
-------------------|---------------------------|---------------------------|
-------------------|---------------------------|---------------------------|

   T     T     T     T     T     T     T     T
   S  S  S  S  S  S  S  S  S  S  S  S  S  S  S  S
--15-11-15-11-15-11-15-11-15-11-15-11-15-11-15-11-|
--------------------------------------------------|
--------------------------------------------------|
--------------------------------------------------|
--------------------------------------------------|
--------------------------------------------------|

   T     T     T     T     T     T     T     T
   S  S  S  S  S  S  S  S  S  S  S  S  S  S  S  S
--15-11-15-11-15-11-15-11-15-11-15-11-15-11-15-11-|
--------------------------------------------------|
--------------------------------------------------|
--------------------------------------------------|
--------------------------------------------------|
--------------------------------------------------|

   E   E   E  E   E   E  E   E      E   E   E  E   E   E  E   E
--------------------------------|--------------------------------|
--------------------------------|--------------------------------|
--10----------8----------7------|--10----------8----------7------|
------10--10-----10--10-----10--|------10--10-----10--10-----10--|
--------------------------------|--------------------------------|
--------------------------------|--------------------------------|

   W                   W                   W
--------------------|-------------------|-------------------|
--------------------|-------------------|-------------------|
--10----------------|-------------------|-------------------|
--------------------|-------------------|-------------------|
--------------------|-------------------|-------------------|
--------------------|-------------------|-------------------|

  W                   W                   W                   W
-------------------|-------------------|-------------------|-------------------|
-------------------|-------------------|-------------------|-------------------|
-------------------|-------------------|-------------------|-------------------|
-------------------|-------------------|-------------------|-------------------|
-------------------|-------------------|-------------------|-------------------|
-------------------|-------------------|-------------------|-------------------|

  W                   W                   W                   W
-------------------|-------------------|-------------------|-------------------|
-------------------|-------------------|-------------------|-------------------|
-------------------|-------------------|-------------------|-------------------|
-------------------|-------------------|-------------------|-------------------|
-------------------|-------------------|-------------------|-------------------|
-------------------|-------------------|-------------------|-------------------|

  W                   E   E   E  E   E   E  E   E     W
-------------------|-------------------------------|-------------------|
-------------------|-------------------------------|-------------------|
-------------------|--8----------7----------8------|-------------------|
-------------------|-----10--10-----10--10-----10--|-------------------|
-------------------|-------------------------------|-------------------|
-------------------|-------------------------------|-------------------|

  S S  S  S S S S S S S  S  S S S S S    S S  S  S S S S S S S  S  S S S S S
--------------------------------------|--------------------------------------|
------------8-8-9-9-----------8-8-9-9-|------------8-8-9-9-----------8-8-9-9-|
--5-5-10-10---------5-5-10-10---------|--5-5-10-10---------5-5-10-10---------|
--------------------------------------|--------------------------------------|
--------------------------------------|--------------------------------------|
--------------------------------------|--------------------------------------|

  W                    W                    W
-------------------|--16b----------------|-------------------|
--6----------------|---------------------|-------------------|
-------------------|---------------------|-------------------|
-------------------|---------------------|-------------------|
-------------------|---------------------|-------------------|
-------------------|---------------------|-------------------|

  W                   W                   W                   W
-------------------|-------------------|-------------------|-------------------|
-------------------|-------------------|-------------------|-------------------|
-------------------|-------------------|-------------------|-------------------|
-------------------|-------------------|-------------------|-------------------|
-------------------|-------------------|-------------------|-------------------|
-------------------|-------------------|-------------------|-------------------|

  W                   W                   W                   W
-------------------|-------------------|-------------------|-------------------|
-------------------|-------------------|-------------------|-------------------|
-------------------|-------------------|-------------------|-------------------|
-------------------|-------------------|-------------------|-------------------|
-------------------|-------------------|-------------------|-------------------|
-------------------|-------------------|-------------------|-------------------|

  W                   W                   W                   W
-------------------|-------------------|-------------------|-------------------|
-------------------|-------------------|-------------------|-------------------|
-------------------|-------------------|-------------------|-------------------|
-------------------|-------------------|-------------------|-------------------|
-------------------|-------------------|-------------------|-------------------|
-------------------|-------------------|-------------------|-------------------|

                                                            PM PM
  W                   E  Q    E  E  E  E  E     E  Q     E  E  E    Q
-------------------|-------------------------|---------------------------|
-------------------|-------------------------|--------------------<>8----|
-------------------|--8--8----7--8--7--------|--8--8--------7--8---------|
-------------------|-------------------8--5--|----------10---------------|
-------------------|-------------------------|---------------------------|
-------------------|-------------------------|---------------------------|

  E  E  E  E  E   E   E  E      E   E  E   E  B
----------------------------|--------------------------|
----------------------------|--------------------------|
--8--8--L--7--8--10--12--8--|--12--10--8--10--L--------|
----------------------------|--------------------------|
----------------------------|--------------------------|
----------------------------|--------------------------|

  E  E  E    Q    E  E   E         E   E   E   E  E    E   S   S  E
----------------------------|----------------------------------------|
--8------------------8--11--|--/<>16--11--16--18-----/20--18p-16-----|
-----8----------------------|------------------------------------15--|
--------8--<>8----8---------|----------------------------------------|
----------------------------|----------------------------------------|
----------------------------|----------------------------------------|

   E   E  E   E   E  E   E  E     E  E    E  E  B
-------------------------------|-------------------------|
--11--11--8--11--11--8---------|--8----------------------|
------------------------10--8--|-----8-------7--L--------|
-------------------------------|--------<>8--------------|
-------------------------------|-------------------------|
-------------------------------|-------------------------|

  E  E  E  E  E  E   E  E     E  E  E  E  E   E    Q
---------------------------|----------------------------|
---------------------------|---------------------<>8----|
-----7--8--7--8--7---------|-----7--8--7--8--10---------|
--------------------10--5--|----------------------------|
---------------------------|----------------------------|
---------------------------|----------------------------|

   T    T    T    T     T     T     T    T
   S S  S S  S S  S  S  S  S  S  S  S S  S S      E   E   E   H         E
---------------------------------------------|---------------13~--------L--|
--11-8-11-8-11-8-----------------------------|-----------11----------------|
-----------------13-10-13-10-13-10-12-8-12-8-|--/12--12--------------------|
---------------------------------------------|-----------------------------|
---------------------------------------------|-----------------------------|
---------------------------------------------|-----------------------------|

   E   E  E   S  S  E   E   E   E      E   E  E   S  S  E   E   Q
-----------------------------------|---------------------------------|
-----------------------------------|---------------------------13----|
--12--12--L--12-10-12--10----------|--12--12--L--10-12-10--12--------|
---------------------------13--10--|---------------------------------|
-----------------------------------|---------------------------------|
-----------------------------------|---------------------------------|

   S   S  S  S  S   S  S   S  S  S  S   S  S   S  S  S
-------------------------------------------------------|
--20p-16----16-18p-15-16p-13----13-16p-13-15p-11----11-|
---------17------------------13------------------12----|
-------------------------------------------------------|
-------------------------------------------------------|
-------------------------------------------------------|

    E   S  S   Q      E.    E.    E        Q.      H        E
-------------------------------------|-------------------------|
--/18--18-18-/20----/18---/16---/11--|--<>16~------------------|
-------------------------------------|-------------------------|
-------------------------------------|-------------------------|
-------------------------------------|-------------------------|
-------------------------------------|-------------------------|

  W                   H        H           H        H
-------------------|--------------------|--------------------|
-------------------|-----------8--------|--6--------4--------|
-------------------|--------------------|--------------------|
-------------------|--------------------|--------------------|
-------------------|--------------------|--------------------|
-------------------|--------------------|--------------------|

  B        B           B        B           B        B
-----------6--------|--4-----------------|--------------------|
--------------------|-----------8--------|-----------8--------|
--------------------|--------------------|--------------------|
--------------------|--------------------|--------------------|
--------------------|--------------------|--------------------|
--------------------|--------------------|--------------------|

  Q.     Q.     Q       W                   H.           Q
---------------------|-------------------|--------------------|
--6------8------6----|--4----------------|--L-----------------|
---------------------|-------------------|--------------------|
---------------------|-------------------|--------------------|
---------------------|-------------------|--------------------|
---------------------|-------------------|--------------------|

  B        B           B        B           B        B
--------------------|--------------------|-----------6--------|
-----------8--------|--6--------4--------|--------------------|
--------------------|--------------------|--------------------|
--------------------|--------------------|--------------------|
--------------------|--------------------|--------------------|
--------------------|--------------------|--------------------|

  H        H           H        H           Q.     Q.     Q
--4-----------------|--------------------|---------------------|
-----------8--------|-----------8--------|--6------8------6----|
--------------------|--------------------|---------------------|
--------------------|--------------------|---------------------|
--------------------|--------------------|---------------------|
--------------------|--------------------|---------------------|

  W                   H.           Q       W
-------------------|--------------------|-------------------|
--4----------------|--L-----------------|-------------------|
-------------------|--------------------|-------------------|
-------------------|--------------------|-------------------|
-------------------|--------------------|-------------------|
-------------------|--------------------|-------------------|

  S   S  S  S  S  S S   S  S   S  S  S  S  S  S  S
---------------------------------------------------|
---------------------------------------------------|
---------------------------------------------------|
--8h-10-10-10-10-10-8h-10-13p-10-10-10-10-10-10-10-|
---------------------------------------------------|
---------------------------------------------------|

   S  S  S  S  S  S S S  S  S  S S S S  S  S
---------------------------------------------|
---------------------------------------------|
--12-12-12-10-10-10-8-8-10-10-10-8-8-8-------|
---------------------------------------12-12-|
---------------------------------------------|
---------------------------------------------|

  S   S  S  S  S  S S   S  S   S  S  S  S  S  S  S
---------------------------------------------------|
---------------------------------------------------|
---------------------------------------------------|
--8h-10-10-10-10-10-8h-10-13p-10-10-10-10-10-10-10-|
---------------------------------------------------|
---------------------------------------------------|

   S  S  S  S  S  S S S  S  S  S S S S  S  S
---------------------------------------------|
---------------------------------------------|
--12-12-12-10-10-10-8-8-10-10-10-8-8-8-------|
---------------------------------------12-12-|
---------------------------------------------|
---------------------------------------------|

  S   S  S  S  S  S S   S  S   S  S  S  S  S  S  S
---------------------------------------------------|
---------------------------------------------------|
---------------------------------------------------|
--8h-10-10-10-10-10-8h-10-13p-10-10-10-10-10-10-10-|
---------------------------------------------------|
---------------------------------------------------|

   S  S  S  S  S  S S S  S  S  S S S S  S  S
---------------------------------------------|
---------------------------------------------|
--12-12-12-10-10-10-8-8-10-10-10-8-8-8-------|
---------------------------------------12-12-|
---------------------------------------------|
---------------------------------------------|

  S   S  S  S  S  S S   S  S   S  S  S  S  S  S  S
---------------------------------------------------|
---------------------------------------------------|
---------------------------------------------------|
--8h-10-10-10-10-10-8h-10-13p-10-10-10-10-10-10-10-|
---------------------------------------------------|
---------------------------------------------------|

   S  S  S  S  S  S S S  S  S  S S S S  S  S    W
---------------------------------------------|-------------------|
---------------------------------------------|-------------------|
--12-12-12-10-10-10-8-8-10-10-10-8-8-8-------|-------------------|
---------------------------------------12-12-|-------------------|
---------------------------------------------|-------------------|
---------------------------------------------|-------------------|

  W                   S  S S  S  S   S  S   S  S   S  S   S S  S S  S
-------------------|--------------------------------------------------|
-------------------|--6s-8-6s-8-11s-15-11s-15-15s-16-15s-16-6s-8-6s-8-|
-------------------|--------------------------------------------------|
-------------------|--------------------------------------------------|
-------------------|--------------------------------------------------|
-------------------|--------------------------------------------------|

  W                   W                   W                   W
-------------------|-------------------|-------------------|-------------------|
-------------------|-------------------|-------------------|-------------------|
-------------------|-------------------|-------------------|-------------------|
-------------------|-------------------|-------------------|-------------------|
-------------------|-------------------|-------------------|-------------------|
-------------------|-------------------|-------------------|-------------------|

  W                   S   S  S  S  S  S S   S  S   S  S  S  S  S  S  S
-------------------|---------------------------------------------------|
-------------------|---------------------------------------------------|
-------------------|---------------------------------------------------|
-------------------|--8h-10-10-10-10-10-8h-10-13p-10-10-10-10-10-10-10-|
-------------------|---------------------------------------------------|
-------------------|---------------------------------------------------|

   S  S  S  S  S  S S S  S  S  S S S S  S  S
---------------------------------------------|
---------------------------------------------|
--12-12-12-10-10-10-8-8-10-10-10-8-8-8-------|
---------------------------------------12-12-|
---------------------------------------------|
---------------------------------------------|

  S   S  S  S  S  S S   S  S   S  S  S  S  S  S  S
---------------------------------------------------|
---------------------------------------------------|
---------------------------------------------------|
--8h-10-10-10-10-10-8h-10-13p-10-10-10-10-10-10-10-|
---------------------------------------------------|
---------------------------------------------------|

   S  S  S  S  S  S S S  S  S  S S S S  S  S
---------------------------------------------|
---------------------------------------------|
--12-12-12-10-10-10-8-8-10-10-10-8-8-8-------|
---------------------------------------12-12-|
---------------------------------------------|
---------------------------------------------|

  S   S  S  S  S  S S   S  S   S  S  S  S  S  S  S
---------------------------------------------------|
---------------------------------------------------|
---------------------------------------------------|
--8h-10-10-10-10-10-8h-10-13p-10-10-10-10-10-10-10-|
---------------------------------------------------|
---------------------------------------------------|

   S  S  S  S  S  S S S  S  S  S S S S  S  S
---------------------------------------------|
---------------------------------------------|
--12-12-12-10-10-10-8-8-10-10-10-8-8-8-------|
---------------------------------------12-12-|
---------------------------------------------|
---------------------------------------------|

  S   S  S  S  S  S S   S  S   S  S  S  S  S  S  S
---------------------------------------------------|
---------------------------------------------------|
---------------------------------------------------|
--8h-10-10-10-10-10-8h-10-13p-10-10-10-10-10-10-10-|
---------------------------------------------------|
---------------------------------------------------|

   S  S  S  S  S  S S S  S  S  S S S S  S  S
---------------------------------------------|
---------------------------------------------|
--12-12-12-10-10-10-8-8-10-10-10-8-8-8-------|
---------------------------------------12-12-|
---------------------------------------------|
---------------------------------------------|

  S S S S    E  S S E   E  E    E     E.  E.   E    H
-----------------------------------|---------------------------|
-----------------------------------|---------------------------|
-----------------------------------|---------------------------|
--6-6-6-6-<>10--6-6-8---------<>8--|--------------<>8br--------|
-----------------------10--6-------|--6---8---10---------------|
-----------------------------------|---------------------------|

  W                   W                    E.    E.  E  E.    E.  E
-------------------|-------------------|-----------------------------|
-------------------|-------------------|-------<>8-------------------|
-------------------|-------------------|--/8---------8--7---<>8---7--|
-------------------|-------------------|-----------------------------|
-------------------|-------------------|-----------------------------|
-------------------|-------------------|-----------------------------|

   S   S  S   S  Q     S  S  S  Q    S    W                   W
---------------------------------------|-------------------|-------------------|
----------------15----15-13-11-13------|-------------------|-------------------|
---------------------------------------|-------------------|-------------------|
--10s-12-10s-12------------------------|-------------------|-------------------|
---------------------------------------|-------------------|-------------------|
---------------------------------------|-------------------|-------------------|

   E   S  S  E   E   E   E   E   E      E   S  S  E   E   E   E   Q
------------------------------------|----------------------------------|
------------------------------------|------------------------11--------|
--12--12-12-12--10--------------10--|--12--12-12-12--10----------12----|
--------------------13--10--13------|--------------------13------------|
------------------------------------|----------------------------------|
------------------------------------|----------------------------------|

   E   S  S  E   E   E   E   E   E
------------------------------------|
------------------------------------|
--12--12-12-12--10--------------10--|
--------------------13--10--13------|
------------------------------------|
------------------------------------|

   S   S   S  S  S  S  S  S  S   S  S  S    Q
-------------------------------------------------|
-------------------------------------------------|
--10h-12p-10----------10-12-15p-12-10-12-<>12----|
-------------13-10-13----------------------------|
-------------------------------------------------|
-------------------------------------------------|

   E   S  S  E   E   E   E   E   E      E   S  S  E   E   E   E   Q
------------------------------------|----------------------------------|
------------------------------------|------------------------15--------|
--15--15-15-15--13--12------12--13--|--15--15-15-15--13--12------15----|
------------------------13----------|----------------------------------|
------------------------------------|----------------------------------|
------------------------------------|----------------------------------|

   E   S  S  E   E   E   E   E   E      S  S  S  S  S  S  S  S E   E   E   E
------------------------------------|--------------------------8--11--13--15--|
------------------------------------|-----------------------------------------|
--15--15-15-15--13--12------12--13--|--15-13-12-13-12-13-15-13-5---8--10--12--|
------------------------13----------|-----------------------------------------|
------------------------------------|-----------------------------------------|
------------------------------------|-----------------------------------------|

   S  S  S  S  S  S  S  S  E   E   E  E     W
--------------------------15--13--11--8--|-------------------|
-----------------------------------------|-------------------|
--15-13-12-13-12-13-12-13-12--10---8--5--|-------------------|
-----------------------------------------|-------------------|
-----------------------------------------|-------------------|
-----------------------------------------|-------------------|

  W                   W                   W                   W
-------------------|-------------------|-------------------|-------------------|
-------------------|-------------------|-------------------|-------------------|
-------------------|-------------------|-------------------|-------------------|
-------------------|-------------------|-------------------|-------------------|
-------------------|-------------------|-------------------|-------------------|
-------------------|-------------------|-------------------|-------------------|

  W                   W                   W                   W
-------------------|-------------------|-------------------|-------------------|
-------------------|-------------------|-------------------|-------------------|
-------------------|-------------------|-------------------|-------------------|
-------------------|-------------------|-------------------|-------------------|
-------------------|-------------------|-------------------|-------------------|
-------------------|-------------------|-------------------|-------------------|

   Q     E    Q     E   E   E      E    E   E    E   E    E    Q
--15----13S--20----13--15--13--|--15S--13--------------------/11----|
-------------------------------|-----------16S--15------------------|
-------------------------------|--------------------13S--12---------|
-------------------------------|------------------------------------|
-------------------------------|------------------------------------|
-------------------------------|------------------------------------|

   E   E   E    E   E   E    Q           E     E   E   E   E    E   Q
----------------------------------|--------------------------------------|
--23--23s--8--/23--23--22s--20----|--/<>15--<>15--\3--16--15s--20--18----|
----------------------------------|--------------------------------------|
----------------------------------|--------------------------------------|
----------------------------------|--------------------------------------|
----------------------------------|--------------------------------------|

  W                   W
-------------------|-------------------|
-------------------|-------------------|
-------------------|-------------------|
-------------------|-------------------|
-------------------|-------------------|
-------------------|-------------------|

   T     T     T             T     T     T
   S  S  S  S  S   S  S  S   S  S  S  S  S   S  S  S
------------------------------------------------------|
--20-16-20-16-20s-16-15-16s-20-16-20-16-20s-16-15-16s-|
------------------------------------------------------|
------------------------------------------------------|
------------------------------------------------------|
------------------------------------------------------|

   T     T     T                     T
   S  S  S  S  S   S  S  S  Q        Q
------------------------------------------|
--20-16-20-16-20s-16-15-16-18b----<>20----|
------------------------------------------|
------------------------------------------|
------------------------------------------|
------------------------------------------|

   S. S. S  S  S  S  S  S  S  S  S  S  S  S  S      E   Q     E   E   E   Q
-----------------------------------------------|-------------------------------|
-----------------------------------11-13-15-16-|--/18--18----20--18------------|
-----------------------------12-14-------------|---------------------20--17----|
-----------------12-13-12-13-------------------|-------------------------------|
-----------11-13-------------------------------|-------------------------------|
--11-13-15-------------------------------------|-------------------------------|

   T       T       T       T       T       T       T       T
   |--3-|  |--3-|  |--3-|  |--3-|  |--3-|  |--3-|  |--3-|  |--3-|
   S  S S  S S  S  S  S S  S S  S  S  S S  S S  S  S  S S  S S  S
------------------------------------------------------------------|
------------------------------------------------------------------|
--17-12-8-17-8-12-17-12-8-17-8-12-17-12-8-17-8-12-17-12-8-17-8-12-|
------------------------------------------------------------------|
------------------------------------------------------------------|
------------------------------------------------------------------|

   S  S  S  S  E   E    E    E   E   E
----------------------------------------|
--20-20-20-20-18--16s--18s--16------16--|
--------------------------------19------|
----------------------------------------|
----------------------------------------|
----------------------------------------|

   T    T    T    T    T    T    T    T    T    T    T    T    T    T    T    T
   T T  T T  T T  T T  T T  T T  T T  T T  T T  T T  T T  T T  T T  T T  T T  T

--17-8-17-8-15-8-15-8-17-8-17-8-13-8-13-8-17-8-17-8-15-8-15-8-17-8-17-8-12-8-12-

   S   S  S  S  S  S  S  S  S  S  S  S  E   E
---------------------------------------20------|
--21p-18----------------18-20-18-20-21-----16--|
---------17----------17------------------------|
------------18----18---------------------------|
---------------20------------------------------|
-----------------------------------------------|

   S  S  S  S  S  S  S  S  H
---------------------------------------|
-----18----18----23----23-23pbr--------|
--17----17----19----19-----------------|
---------------------------------------|
---------------------------------------|
---------------------------------------|

   S  S  S  S  S  S  S  S  H               W
----------------------------------------|-------------------|
-----------------------11-20pbr~--------|-------------------|
--------------10-12-14------------------|-------------------|
-----10-12-13---------------------------|-------------------|
--13------------------------------------|-------------------|
----------------------------------------|-------------------|

  W                   W                   W
-------------------|-------------------|-------------------|
-------------------|-------------------|-------------------|
-------------------|-------------------|-------------------|
-------------------|-------------------|-------------------|
-------------------|-------------------|-------------------|
-------------------|-------------------|-------------------|

  Q     Q     E  E   E   E      Q.        Q     Q     E
----------------------------|----------------------------|
-------16----18-----20--18--|--20br------20----18----16--|
----------------------------|----------------------------|
----------------------------|----------------------------|
----------------------------|----------------------------|
----------------------------|----------------------------|

   E    E   E   E   E   E   E   E     Q     E   E   E.     S  Q
--13p--11--------------------------|-------------------------------|
-----------11--------------11--13--|--L----15--13--15br---13-------|
---------------12------12----------|-------------------------12----|
-------------------13--------------|-------------------------------|
-----------------------------------|-------------------------------|
-----------------------------------|-------------------------------|

   E   E   E   E  E   E   E   E      E   E   E   E   S   S  S  S  Q
---------------------------------|-------------------------------15----|
------20-------------16----------|----------13--15--16p-15----15-------|
--17------17--13--L------13--12--|--10--12-----------------17----------|
---------------------------------|-------------------------------------|
---------------------------------|-------------------------------------|
---------------------------------|-------------------------------------|

     whammy bar
     Q          Q        Q        Q         Q.       H          E
----------------------------------------|--10b------13br--------L--|
----------------------------------------|--------------------------|
--<>15b---------------------------------|--------------------------|
-------------<>15b----<>13b-------------|--------------------------|
-------------------------------<>15b----|--------------------------|
----------------------------------------|--------------------------|

  W                   W                   W                   W
-------------------|-------------------|-------------------|-------------------|
-------------------|-------------------|-------------------|-------------------|
-------------------|-------------------|-------------------|-------------------|
-------------------|-------------------|-------------------|-------------------|
-------------------|-------------------|-------------------|-------------------|
-------------------|-------------------|-------------------|-------------------|

    Q.      Q     E.  S  E      E   E  E     Q      Q     E
----------------------------|--------------------------------|
--/13------13---------------|--13--15-----<>16~----13----11--|
-----------------13-----13--|--------------------------------|
----------------------------|--------------------------------|
----------------------------|--------------------------------|
----------------------------|--------------------------------|

   S   S  S  S  S   S   S  S  H             E   E   E     E   H
----------------------------------------|------------------------------|
----------------------------------------|------------------------------|
--13p-12---------------------13b--------|------------------------------|
---------13-10-12h-13p-12-10------------|--12------13--<>10~--L--------|
----------------------------------------|------15----------------------|
----------------------------------------|------------------------------|

    E   E   E   E   E   E   E   E      E   E  E   E  E   E     Q
-----------------------------------|--------------------------------|
--/16--16--13--16--16--13--16--13--|--16--18-----16-----13--<>13----|
-----------------------------------|--------------------------------|
-----------------------------------|--------------------------------|
-----------------------------------|--------------------------------|
-----------------------------------|--------------------------------|

   S  S  S  S  S  S  S  S  S  S  S  S  S  S  S  S
--------------------------------------------------|
--------------------------------------------------|
--------------------------------------------------|
--------------13-------13-15----13-15-17-13-15-17-|
--------15-17----15-17-------17-------------------|
--17-18-------------------------------------------|

   T     T                 T     T
   S  S  S  S  S  S  S  S  S  S  S  S  S  S  S  S
--------------------------------------------------|
--------------16-15-------------------20-16-------|
--17-13-19-13-------17-13-19-15-19-15-------17-13-|
--------------------------------------------------|
--------------------------------------------------|
--------------------------------------------------|

  S S  S  S  S  S  S  S  S  S  S  S  S  S  S  S
------------------------------------------------|
------------------------------------------------|
--8-8-------10-10-------12-12-------10-10-------|
------10-10-------10-10-------10-10-------10-10-|
------------------------------------------------|
------------------------------------------------|

   T      T      T      T      T      T      T      T
   |-3-|  |-3-|  |-3-|  |-3-|  |-3-|  |-3-|  |-3-|  |-3-|
   S S S  S S S  S S S  S S S  S S S  S S S  S S S  S S S
----------------------------------------------------------|
----------------------------------------------------------|
--13-8-5-13-8-5-13-8-5-13-8-5-13-8-5-13-8-5-13-8-5-13-8-5-|
----------------------------------------------------------|
----------------------------------------------------------|
----------------------------------------------------------|

   S  S  S  S  S  S  S  S  S  S  S  S  S  S  S  S
--------------------------------------------------|
-----------13-15-16-15-13-15-13-------------------|
--13-12-13----------------------13-12----------12-|
--------------------------------------13-12-13----|
--------------------------------------------------|
--------------------------------------------------|

   S  S  S  S  S  S  S  S  S  S  S  S    Q         E   E   E   E  E   Q     E
----------------------------------------------|--------------------------------|
----------------------------------------------|--/13--11--13--11---------------|
--13-13-12----12-12---------------------------|----------------------12----12--|
-----------13-------13-13-12-13-12------------|--------------------------------|
-----------------------------------15-<>15----|--------------------------------|
----------------------------------------------|--------------------------------|

     Q.         E   E   E     Q
------------------------------------|
--<>11brb---------------------------|
------------------------------------|
---------------13--12--10--<>10~----|
------------------------------------|
------------------------------------|

                           T  W  T  W  T  W  T  W
   S  S  S  S  S  S  S  S  S  S  S  S  S  S  S  S
--------------------------------------------------|
--------------------------------------------------|
--------------------------------------------------|
--------------13-15-17-18-18-13-18-13-18-13-18-13-|
-----13-15-17-------------------------------------|
--15----------------------------------------------|

   whammy bar dive
   T                     T        T        T        T        T        T        T
   |---------3--------|  |--3--|  |--3--|  |--3--|  |--3--|  |--3--|  |--3--|  |
   S               S  S  S  S  S  S  S  S  S  S  S  S  S  S  S  S  S  S  S  S  S

--17--------------13-12-17-13-12-17-13-12-17-13-12-17-13-12-17-13-12-17-13-12-17

  W                   W                   W                   W
-------------------|-------------------|-------------------|-------------------|
-------------------|-------------------|-------------------|-------------------|
-------------------|-------------------|-------------------|-------------------|
-------------------|-------------------|-------------------|-------------------|
-------------------|-------------------|-------------------|-------------------|
-------------------|-------------------|-------------------|-------------------|

  W                   W                   W                   W
-------------------|-------------------|-------------------|-------------------|
-------------------|-------------------|-------------------|-------------------|
-------------------|-------------------|-------------------|-------------------|
-------------------|-------------------|-------------------|-------------------|
-------------------|-------------------|-------------------|-------------------|
-------------------|-------------------|-------------------|-------------------|

  W                   W                   W                   W
-------------------|-------------------|-------------------|-------------------|
-------------------|-------------------|-------------------|-------------------|
-------------------|-------------------|-------------------|-------------------|
-------------------|-------------------|-------------------|-------------------|
-------------------|-------------------|-------------------|-------------------|
-------------------|-------------------|-------------------|-------------------|

  W                   W                   W
-------------------|-------------------|-------------------|
-------------------|-------------------|-------------------|
-------------------|-------------------|-------------------|
-------------------|-------------------|-------------------|
-------------------|-------------------|-------------------|
-------------------|-------------------|-------------------|

            |--3--| |-3-| |-3-| |-3-|
  H         S  S  S S S S S S S S S S    W                   W
--------------------------------------|-------------------|-------------------|
--------------------------------------|-------------------|-------------------|
-----------12-11-10-9-8-7-6-5-4-3-2-1-|-------------------|-------------------|
--------------------------------------|-------------------|-------------------|
--------------------------------------|-------------------|-------------------|
--------------------------------------|-------------------|-------------------|

  W                   W                   W                   W
-------------------|-------------------|-------------------|-------------------|
-------------------|-------------------|-------------------|-------------------|
-------------------|-------------------|-------------------|-------------------|
-------------------|-------------------|-------------------|-------------------|
-------------------|-------------------|-------------------|-------------------|
-------------------|-------------------|-------------------|-------------------|

  W                   W                   W                   W
-------------------|-------------------|-------------------|-------------------|
-------------------|-------------------|-------------------|-------------------|
-------------------|-------------------|-------------------|-------------------|
-------------------|-------------------|-------------------|-------------------|
-------------------|-------------------|-------------------|-------------------|
-------------------|-------------------|-------------------|-------------------|

  W                   W                   W                   W
-------------------|-------------------|-------------------|-------------------|
-------------------|-------------------|-------------------|-------------------|
-------------------|-------------------|-------------------|-------------------|
-------------------|-------------------|-------------------|-------------------|
-------------------|-------------------|-------------------|-------------------|
-------------------|-------------------|-------------------|-------------------|

   S  S  S  S S S  S  S  S  S S S  S  S S S
--------------------------------------------|
--13-13-13-13-8-8-13-13-13-13-8-8-13-13-8-8-|
--------------------------------------------|
--------------------------------------------|
--------------------------------------------|
--------------------------------------------|

   S  S  S  S S S  S  S  S  S S S  S  S S S
--------------------------------------------|
--13-13-13-13-8-8-13-13-13-13-8-8-13-13-8-8-|
--------------------------------------------|
--------------------------------------------|
--------------------------------------------|
--------------------------------------------|

   S  S  S  S  S  S  S  S  S  S  S  S  S  S  S  S
--------------------------------------------------|
--16-16-16-16-13-13-16-16-16-16-13-13-16-16-13-13-|
--------------------------------------------------|
--------------------------------------------------|
--------------------------------------------------|
--------------------------------------------------|

   S  S  S  S  S  S  S  S  S  S  S  S  S  S  S  S
--------------------------------------------------|
--16-16-16-16-13-13-16-16-16-16-13-13-16-16-13-13-|
--------------------------------------------------|
--------------------------------------------------|
--------------------------------------------------|
--------------------------------------------------|

   S  S  S  S S S  S  S  S  S S S  S  S S S
--------------------------------------------|
--13-13-13-13-9-9-13-13-13-13-9-9-13-13-9-9-|
--------------------------------------------|
--------------------------------------------|
--------------------------------------------|
--------------------------------------------|

   S  S  S  S S S  S  S  S  S S S  S  S S S
--------------------------------------------|
--13-13-13-13-9-9-13-13-13-13-9-9-13-13-9-9-|
--------------------------------------------|
--------------------------------------------|
--------------------------------------------|
--------------------------------------------|

   S  S  S  S S S  S  S  S  S S S  S  S S S
--------------------------------------------|
--13-13-13-13-8-8-13-13-13-13-8-8-13-13-8-8-|
--------------------------------------------|
--------------------------------------------|
--------------------------------------------|
--------------------------------------------|

  S S  S S  S S S S S S S S S S S S
----------------------6-------------|
---------8----8-9-8-9---9-8-9-8-----|
--7-8-10---10-------------------8-7-|
------------------------------------|
------------------------------------|
------------------------------------|

   S  S  S  S S S  S  S  S  S S S  S  S S S
--------------------------------------------|
--13-13-13-13-8-8-13-13-13-13-8-8-13-13-8-8-|
--------------------------------------------|
--------------------------------------------|
--------------------------------------------|
--------------------------------------------|

   S  S  S  S S S  S  S  S  S S S  S  S S S
--------------------------------------------|
--13-13-13-13-8-8-13-13-13-13-8-8-13-13-8-8-|
--------------------------------------------|
--------------------------------------------|
--------------------------------------------|
--------------------------------------------|

   S  S  S  S  S  S  S  S  S  S  S  S  S  S  S  S
--------------------------------------------------|
--16-16-16-16-13-13-16-16-16-16-13-13-16-16-13-13-|
--------------------------------------------------|
--------------------------------------------------|
--------------------------------------------------|
--------------------------------------------------|

   S  S  S  S  S  S  S  S  S  S  S  S  S  S  S  S
--------------------------------------------------|
--16-16-16-16-13-13-16-16-16-16-13-13-16-16-13-13-|
--------------------------------------------------|
--------------------------------------------------|
--------------------------------------------------|
--------------------------------------------------|

   S  S  S  S S S  S  S  S  S S S  S  S S S
--------------------------------------------|
--13-13-13-13-9-9-13-13-13-13-9-9-13-13-9-9-|
--------------------------------------------|
--------------------------------------------|
--------------------------------------------|
--------------------------------------------|

   S  S  S  S S S  S  S  S  S S S  S  S S S    W
--------------------------------------------|-------------------|
--13-13-13-13-9-9-13-13-13-13-9-9-13-13-9-9-|-------------------|
--------------------------------------------|-------------------|
--------------------------------------------|-------------------|
--------------------------------------------|-------------------|
--------------------------------------------|-------------------|

                       PM  PM  PM  PM  PM  PM  PM  PM
  W                    E   E   E   E   E   E   E   E
-------------------|----------------------------------|
-------------------|----------------------------------|
-------------------|--12--15--15--12--15--15--12--15--|
-------------------|----------------------------------|
-------------------|--10--13--13--10--13--13--10--13--|
-------------------|----------------------------------|

   PM  PM  PM  PM  PM  PM  PM  PM     PM  PM  PM  PM  PM  PM  PM  PM
   E   E   E   E   E   E   E   E      E   E   E   E   E   E   E   E
----------------------------------|----------------------------------|
----------------------------------|----------------------------------|
--15--12--12--15--15--12----------|--10--12--12--10--12--12--10--12--|
--------------------------15--13--|----------------------------------|
--13--10--10--13--13--10----------|---8--10--10---8--10--10---8--10--|
--------------------------13--11--|----------------------------------|

   PM  PM  PM  PM  PM  PM  PM  PM
   E   E   E   E   E   E   E   E      E   E   E   E  E   E  E   E
----------------------------------|--------------------------------|
----------------------------------|--------------------------------|
--12--10--12--12--13--12----------|--------------------------------|
--------------------------15--13--|--------------------------------|
--10---8--10--10--11--10----------|--15--15--15--15-----15-----15--|
--------------------------13--11--|--------------------------------|

  E   E  E   E   E   E   E  E
-------------------------------|
-------------------------------|
-------------------------------|
-------------------------------|
-----15-----15--15--15--15-----|
-------------------------------|

   S   S   S   S   S   S   S   S   S   S   S   S   S   S   S   S
-----------------------------------------------------------------|
-----------------------------------------------------------------|
--15p-12h-15p-12h-15p-12h-15p-12h-15p-12h-15p-12h-15p-12h-15p-12-|
-----------------------------------------------------------------|
-----------------------------------------------------------------|
-----------------------------------------------------------------|

   S   S   S   S   S   S   S   S   S   S   S   S   S   S   S   S
-----------------------------------------------------------------|
-----------------------------------------------------------------|
--15p-12h-15p-12h-15p-12h-15p-12h-15p-12h-15p-12h-15p-12h-15p-12-|
-----------------------------------------------------------------|
-----------------------------------------------------------------|
-----------------------------------------------------------------|

   S   S   S   S   S   S   S   S   S   S   S   S   S   S   S   S
-----------------------------------------------------------------|
-----------------------------------------------------------------|
--15p-12h-15p-12h-15p-12h-15p-12h-15p-12h-15p-12h-15p-12h-15p-12-|
-----------------------------------------------------------------|
-----------------------------------------------------------------|
-----------------------------------------------------------------|

   S   S   S   S   S   S   S   S   S   S   S   S   S   S   S   S
-----------------------------------------------------------------|
-----------------------------------------------------------------|
--15p-12h-15p-12h-15p-12h-15p-12h-15p-12h-15p-12h-15p-12h-15p-12-|
-----------------------------------------------------------------|
-----------------------------------------------------------------|
-----------------------------------------------------------------|

   S   S   S   S   S   S   S   S   S   S   S   S   S   S   S   S
-----------------------------------------------------------------|
-----------------------------------------------------------------|
--15p-12h-15p-12h-15p-12h-15p-12h-15p-12h-15p-12h-15p-12h-15p-12-|
-----------------------------------------------------------------|
-----------------------------------------------------------------|
-----------------------------------------------------------------|

   S   S   S   S   S   S   S   S   S   S   S   S   S   S   S   S
-----------------------------------------------------------------|
-----------------------------------------------------------------|
--15p-12h-15p-12h-15p-12h-15p-12h-15p-12h-15p-12h-15p-12h-15p-12-|
-----------------------------------------------------------------|
-----------------------------------------------------------------|
-----------------------------------------------------------------|

   PM  PM  PM  PM  PM  PM  PM  PM
   E   E   E   E   E   E   E   E      B         B
--13------------------------------|-------------------------|
------16--15--13--16--15--13------|--16b--------------------|
------------------------------15--|-------------------------|
----------------------------------|-------------8pbr--------|
----------------------------------|-------------------------|
----------------------------------|-------------------------|

                       |-----3-----|
   S   S   E   E   E   Q     Q     Q          Q.      H        E
----------------------------------------|-------------------------||
--13h-15p-13----------------------------|-------------------------||
--------------13--12--------12----13----|--<>12~------------------||
----------------------13----------------|-------------------------||
----------------------------------------|-------------------------||
----------------------------------------|-------------------------||

_____________________________________________________________________________
_____________________________________________________________________________
_____________________________________________________________________________
_____________________________________________________________________________
_____________________________________________________________________________
_____________________________________________________________________________
_____________________________________________________________________________
_____________________________________________________________________________
_____________________________________________________________________________
_____________________________________________________________________________
_____________________________________________________________________________
_____________________________________________________________________________

Rhythm Guitar 1&2:

     Q    H        Q       W                   Q    H        Q
E||---------------------|-------------------|---------------------|
B||---------------------|-------------------|---------------------|
G||--5------------------|-------------------|--5------------------|
D||--5------------------|-------------------|--5------------------|
A||--3------------------|-------------------|--3------------------|
E||---------------------|-------------------|---------------------|

  W                   W                   W
-------------------|-------------------|-------------------|
-------------------|-------------------|-------------------|
-------------------|--3----------------|--L----------------|
-------------------|--3----------------|--L----------------|
-------------------|--1----------------|--L----------------|
-------------------|-------------------|-------------------|

  Q    H        Q       W                   Q    H        Q
---------------------|-------------------|---------------------|
---------------------|-------------------|---------------------|
---------------------|-------------------|--5------------------|
--6------------------|--5----------------|--5------------------|
--6------------------|--5----------------|--3------------------|
--4------------------|--3----------------|---------------------|

  W                   Q    H        Q       W
-------------------|---------------------|-------------------|
-------------------|---------------------|-------------------|
-------------------|--5------------------|-------------------|
-------------------|--5------------------|-------------------|
-------------------|--3------------------|-------------------|
-------------------|---------------------|-------------------|

  W                   W                   Q    H        Q
-------------------|-------------------|---------------------|
-------------------|-------------------|---------------------|
-------------------|-------------------|---------------------|
--6----------------|--L----------------|--5------------------|
--6----------------|--L----------------|--5------------------|
--4----------------|--L----------------|--3------------------|

  E.  S E.  S E.  Q    S    E  S S S S S S S S S S S S S S
-------------------------|---------------------------------|
-------------------------|---------------------------------|
-------------------------|---------------------------------|
--5-----5-----5----------|--5------------------------------|
--5-----5-----5----------|--3--3-3-3-3-3-3-3-3-3-3-3-3-3-3-|
--3-----3-----3----------|---------------------------------|

  S S S S S S S S S S S S S S S S    E  S S S S S S S S S S S S S S
----------------------------------|---------------------------------|
----------------------------------|---------------------------------|
----------------------------------|---------------------------------|
----------------------------------|---------------------------------|
--3-3-3-3-3-3-3-3-3-3-3-3-3-3-3-3-|--6------------------------------|
----------------------------------|--4--4-4-4-4-4-4-4-4-4-4-4-4-4-4-|

  S S S S S S S S S S S S S S S S    E  S S S S S S S S S S S S S S
----------------------------------|---------------------------------|
----------------------------------|---------------------------------|
----------------------------------|---------------------------------|
----------------------------------|---------------------------------|
----------------------------------|--3------------------------------|
--4-4-4-4-4-4-4-4-4-4-4-4-4-4-4-4-|--1--1-1-1-1-1-1-1-1-1-1-1-1-1-1-|

  S S S S S S S S S S S S S S S S    E  S S S S S S S S S S S S S S
----------------------------------|---------------------------------|
----------------------------------|---------------------------------|
----------------------------------|---------------------------------|
----------------------------------|---------------------------------|
----------------------------------|--6------------------------------|
--1-1-1-1-1-1-1-1-1-1-1-1-1-1-1-1-|--4--4-4-4-4-4-4-4-4-4-4-4-4-4-4-|

  S S S S S S S S S S S S S S S S    E  S S S S S S S S S S S S S S
----------------------------------|---------------------------------|
----------------------------------|---------------------------------|
----------------------------------|---------------------------------|
----------------------------------|--5------------------------------|
----------------------------------|--3--3-3-3-3-3-3-3-3-3-3-3-3-3-3-|
--4-4-4-4-4-4-4-4-4-4-4-4-4-4-4-4-|---------------------------------|

  S S S S S S S S S S S S S S S S    E  S S S S S S S S S S S S S S
----------------------------------|---------------------------------|
----------------------------------|---------------------------------|
----------------------------------|---------------------------------|
----------------------------------|---------------------------------|
--3-3-3-3-3-3-3-3-3-3-3-3-3-3-3-3-|--6------------------------------|
----------------------------------|--4--4-4-4-4-4-4-4-4-4-4-4-4-4-4-|

  S S S S S S S S S S S S S S S S    E  S S S S S S S S S S S S S S
----------------------------------|---------------------------------|
----------------------------------|---------------------------------|
----------------------------------|---------------------------------|
----------------------------------|---------------------------------|
----------------------------------|--3------------------------------|
--4-4-4-4-4-4-4-4-4-4-4-4-4-4-4-4-|--1--1-1-1-1-1-1-1-1-1-1-1-1-1-1-|

  S S S S S S S S S S S S S S S S    E  S S S S S S S S S S S S S S
----------------------------------|---------------------------------|
----------------------------------|---------------------------------|
----------------------------------|---------------------------------|
----------------------------------|---------------------------------|
----------------------------------|--6------------------------------|
--1-1-1-1-1-1-1-1-1-1-1-1-1-1-1-1-|--4--4-4-4-4-4-4-4-4-4-4-4-4-4-4-|

  S S S S S S S S S S S S S S S S    Q    H        Q       W
----------------------------------|---------------------|-------------------|
----------------------------------|---------------------|-------------------|
----------------------------------|--5------------------|-------------------|
----------------------------------|--5------------------|-------------------|
----------------------------------|--3------------------|-------------------|
--4-4-4-4-4-4-4-4-4-4-4-4-4-4-4-4-|---------------------|-------------------|

  Q    H        Q       W                   Q    H        Q
---------------------|-------------------|---------------------|
---------------------|-------------------|---------------------|
---------------------|-------------------|--3------------------|
--6------------------|-------------------|--3------------------|
--6------------------|-------------------|--1------------------|
--4------------------|-------------------|---------------------|

  W                   E.  S E.  S E  Q.        Q    H        Q
-------------------|------------------------|---------------------|
-------------------|------------------------|---------------------|
-------------------|--3-----3-----3--3------|--5------------------|
-------------------|--3-----3-----3--3------|--5------------------|
-------------------|--1-----1-----1--1------|--3------------------|
-------------------|------------------------|---------------------|

  E  S S S S S S S S S S S S S S    S S S S S S S S E  E  E  E
---------------------------------|------------------------------|
---------------------------------|------------------------------|
---------------------------------|------------------------3--5--|
--5------------------------------|------------------5--5--3--5--|
--3--3-3-3-3-3-3-3-3-3-3-3-3-3-3-|--3-3-3-3-3-3-3-3-3--3--------|
---------------------------------|------------------------------|

  E  S S S S S S S S S S S S S S    S S S S S S S S S S S S S S S S
---------------------------------|----------------------------------|
---------------------------------|----------------------------------|
---------------------------------|----------------------------------|
---------------------------------|----------------------------------|
--6------------------------------|----------------------------------|
--4--4-4-4-4-4-4-4-4-4-4-4-4-4-4-|--4-4-4-4-4-4-4-4-4-4-4-4-4-4-4-4-|

  E  S S S S E  H           E  S S S S E  H           E  E  E  E  E  E  E  E
-------------------------|-------------------------|--------------------------|
-------------------------|-------------------------|--------------------------|
-------------3--L--------|-------------3--L--------|--------------------------|
--3----------3--L--------|--3----------3--L--------|--------5-----------5-----|
--1--1-1-1-1-1--L--------|--1--1-1-1-1-1--L--------|--3--3--3--3--3--3--3--3--|
-------------------------|-------------------------|--------------------------|

  E  Q    E  E  E  E  E     E  S S S S S S S S S S S S S S
-------------------------|---------------------------------|
-------------------------|---------------------------------|
-----5----3--5-----------|---------------------------------|
-----5----3--5-----------|--5------------------------------|
--3-------------3--3--3--|--3--3-3-3-3-3-3-3-3-3-3-3-3-3-3-|
-------------------------|---------------------------------|

  S S S S S S S S S S S S S S S S    E  S S S S S S S S S S S S S S
----------------------------------|---------------------------------|
----------------------------------|---------------------------------|
----------------------------------|---------------------------------|
----------------------------------|---------------------------------|
--3-3-3-3-3-3-3-3-3-3-3-3-3-3-3-3-|--6------------------------------|
----------------------------------|--4--4-4-4-4-4-4-4-4-4-4-4-4-4-4-|

  S S S S S S S S S S S S S S S S    E  S S E  E  E  E    Q
----------------------------------|-----------------------------|
----------------------------------|-----------------------------|
----------------------------------|-----------------------------|
----------------------------------|---------------3-----<>3b----|
----------------------------------|--1--1-1-1--1-----1----------|
--4-4-4-4-4-4-4-4-4-4-4-4-4-4-4-4-|-----------------------------|

  E  S S E  E    E  E    Q        E  S S S S S S S S S S S S S S
-------------------------------|---------------------------------|
-------------------------------|---------------------------------|
-------------------------------|---------------------------------|
---------------<>3-----<>3b----|--5------------------------------|
--1--1-1-1--1-------1----------|--3--3-3-3-3-3-3-3-3-3-3-3-3-3-3-|
-------------------------------|---------------------------------|

  E  E.  S E.  S E.  S E     W                   W
--------------------------|-------------------|-------------------|
--------------------------|-------------------|-------------------|
-----5-----5-----5-----5--|-------------------|-------------------|
-----5-----5-----5-----5--|--3----------------|--L----------------|
-----3-----3-----3-----3--|--3----------------|--L----------------|
--------------------------|--1----------------|--L----------------|

  W                   W                   W                   W
-------------------|-------------------|-------------------|-------------------|
-------------------|-------------------|-------------------|-------------------|
--5----------------|--L----------------|-------------------|-------------------|
--5----------------|--L----------------|--6----------------|--L----------------|
--3----------------|--L----------------|--6----------------|--L----------------|
-------------------|-------------------|--4----------------|--L----------------|

  Q    E  E  E  E  E  E     E.  S Q    Q    Q       W
-------------------------|-----------------------|-------------------|
-------------------------|-----------------------|-------------------|
--3----------------------|--3-----3---------3----|--8----------------|
--3----------------------|--3-----3----6----3----|--8----------------|
--1----1--1--1--1--1--1--|--1-----1----6----1----|--6----------------|
-------------------------|-------------4---------|-------------------|

  W                   W                   S S E  S S E  S S E    Q
-------------------|-------------------|------------------------------|
-------------------|-------------------|------------------------------|
-------------------|-------------------|------------------------------|
--8----------------|--6----------------|------------------------------|
--8----------------|--6----------------|--6-6-6--6-6-6--6-6-6--<>6----|
--6----------------|--4----------------|--4-4-4--4-4-4--4-4-4---------|

  E  E  E  E  E  E  E  E     E  E  E  E  E  E    Q
--------------------------|---------------------------|
--------------------------|---------------------------|
--------------------------|---------------------------|
--5--------5--------5-----|--3--------3---------------|
--3--3--3--3--3--3--3--3--|--1--1--1--1--1--1--<>1----|
--------------------------|---------------------------|

  E  S S S S S S S S S S S S S S    S S S S S S S S S S S S S S S S
---------------------------------|----------------------------------|
---------------------------------|----------------------------------|
---------------------------------|----------------------------------|
---------------------------------|----------------------------------|
--6------------------------------|----------------------------------|
--4--4-4-4-4-4-4-4-4-4-4-4-4-4-4-|--4-4-4-4-4-4-4-4-4-4-4-4-4-4-4-4-|

  W                   W                   E  E  E  E  E  E  E  E
-------------------|-------------------|--------------------------|
-------------------|-------------------|--------------------------|
--5----------------|-------------------|--------------------------|
--5----------------|--6----------------|--5--------5--------5-----|
--3----------------|--6----------------|--3--3--3--3--3--3--3--3--|
-------------------|--4----------------|--------------------------|

  W                   E  S S S S S S S S S S S S S S
-------------------|---------------------------------|
-------------------|---------------------------------|
--8----------------|---------------------------------|
--8----------------|---------------------------------|
--6----------------|--6------------------------------|
-------------------|--4--4-4-4-4-4-4-4-4-4-4-4-4-4-4-|

  S S S S S S S S S S S S S S S S    E  S S S S S S S S S S S S S S
----------------------------------|---------------------------------|
----------------------------------|---------------------------------|
----------------------------------|---------------------------------|
----------------------------------|--3------------------------------|
----------------------------------|--1--1-1-1-1-1-1-1-1-1-1-1-1-1-1-|
--4-4-4-4-4-4-4-4-4-4-4-4-4-4-4-4-|---------------------------------|

  Q    H        Q       W                   W
---------------------|-------------------|-------------------|
---------------------|-------------------|-------------------|
--3------------------|-------------------|-------------------|
--3------------------|--6----------------|--L----------------|
--1------------------|--6----------------|--L----------------|
---------------------|--4----------------|--L----------------|

  W                   W                   E  S S S S S S S S S S S S S S
-------------------|-------------------|---------------------------------|
-------------------|-------------------|---------------------------------|
--5----------------|--L----------------|---------------------------------|
--5----------------|--L----------------|--3------------------------------|
--3----------------|--L----------------|--1--1-1-1-1-1-1-1-1-1-1-1-1-1-1-|
-------------------|-------------------|---------------------------------|

  S S S S S S S S S S S S S S S S    W                   W
----------------------------------|-------------------|-------------------|
----------------------------------|-------------------|-------------------|
----------------------------------|-------------------|-------------------|
----------------------------------|--5----------------|--L----------------|
--1-1-1-1-1-1-1-1-1-1-1-1-1-1-1-1-|--5----------------|--L----------------|
----------------------------------|--3----------------|--L----------------|

  W                   W                   W                   W
-------------------|-------------------|-------------------|-------------------|
-------------------|-------------------|-------------------|-------------------|
-------------------|-------------------|--5----------------|--L----------------|
--6----------------|--L----------------|--5----------------|--L----------------|
--6----------------|--L----------------|--3----------------|--L----------------|
--4----------------|--L----------------|-------------------|-------------------|

  W                   Q    H        Q       W
-------------------|---------------------|-------------------|
-------------------|---------------------|-------------------|
--3----------------|--3------------------|--5----------------|
--3----------------|--3------------------|--5----------------|
--1----------------|--1------------------|--3----------------|
-------------------|---------------------|-------------------|

  W                   W                   W                   W
-------------------|-------------------|-------------------|-------------------|
-------------------|-------------------|-------------------|-------------------|
--L----------------|-------------------|--3----------------|--5----------------|
--L----------------|--6----------------|--3----------------|--5----------------|
--L----------------|--6----------------|--1----------------|--3----------------|
-------------------|--4----------------|-------------------|-------------------|

  W                   W                   W                   W
-------------------|-------------------|-------------------|-------------------|
-------------------|-------------------|-------------------|-------------------|
--L----------------|-------------------|--3----------------|--5----------------|
--L----------------|--6----------------|--3----------------|--5----------------|
--L----------------|--6----------------|--1----------------|--3----------------|
-------------------|--4----------------|-------------------|-------------------|

  W                   W                   W                   W
-------------------|-------------------|-------------------|-------------------|
-------------------|-------------------|-------------------|-------------------|
--L----------------|-------------------|--3----------------|--5----------------|
--L----------------|--6----------------|--3----------------|--5----------------|
--L----------------|--6----------------|--1----------------|--3----------------|
-------------------|--4----------------|-------------------|-------------------|

  W                   W                   Q    Q    E.  E.  E
-------------------|-------------------|-----------------------|
-------------------|-------------------|-----------------------|
--L----------------|-------------------|-------3---------------|
--L----------------|--6----------------|--6----3----6---5---3--|
--L----------------|--6----------------|--6----1----6---5---3--|
-------------------|--4----------------|--4---------4---3---1--|

  Q.     H        E     W                   Q    E  E  E  E  E  E
---------------------|-------------------|-------------------------|
---------------------|-------------------|-------------------------|
--5------------------|-------------------|--5----------------------|
--5------------------|-------------------|--5----------------------|
--3------------------|-------------------|--3----3--3--3--3--3--3--|
---------------------|-------------------|-------------------------|

  E  E  E  E  E  E  E  E     Q    E  E  E  E  E  E     E  E  E  E  E  E  E  E
--------------------------|-------------------------|--------------------------|
--------------------------|-------------------------|--------------------------|
--------------------------|-------------------------|--------------------------|
--------------------------|--6----------------------|--------------------------|
--3--3--3--3--3--3--3--3--|--6----------------------|--------------------------|
--------------------------|--4----4--4--4--4--4--4--|--4--4--4--4--4--4--4--4--|

  Q    E  E  E  E  E  E     E  E  E  E  E  E  E  E     Q    H        Q
-------------------------|--------------------------|---------------------|
-------------------------|--------------------------|---------------------|
--3----------------------|--------------------------|--5------------------|
--3----------------------|--------------------------|--5------------------|
--1----1--1--1--1--1--1--|--1--1--1--1--1--1--1--1--|--3------------------|
-------------------------|--------------------------|---------------------|

  Q    H        Q       E  S S S S S S S S S S S S S S
---------------------|---------------------------------|
---------------------|---------------------------------|
--5------------------|---------------------------------|
--5------------------|--5------------------------------|
--3------------------|--3--3-3-3-3-3-3-3-3-3-3-3-3-3-3-|
---------------------|---------------------------------|

  S S S S S S S S S S S S S S S S    E  S S S S S S S S S S S S S S
----------------------------------|---------------------------------|
----------------------------------|---------------------------------|
----------------------------------|---------------------------------|
----------------------------------|---------------------------------|
--3-3-3-3-3-3-3-3-3-3-3-3-3-3-3-3-|--6------------------------------|
----------------------------------|--4--4-4-4-4-4-4-4-4-4-4-4-4-4-4-|

  S S S S S S S S S S S S S S S S    E  S S S S E  H
----------------------------------|-------------------------|
----------------------------------|-------------------------|
----------------------------------|-------------3--L--------|
----------------------------------|--3----------3--L--------|
----------------------------------|--1--1-1-1-1-1--L--------|
--4-4-4-4-4-4-4-4-4-4-4-4-4-4-4-4-|-------------------------|

  E  S S S S E  H           E  E  E  E  E  E  E  E     E  Q    E  E  E    Q
-------------------------|--------------------------|--------------------------|
-------------------------|--------------------------|--------------------------|
-------------3--L--------|--------------------------|-----5----3--5-----<>5----|
--3----------3--L--------|--------5-----------5-----|-----5----3--5------------|
--1--1-1-1-1-1--L--------|--3--3--3--3--3--3--3--3--|--3-------------3---------|
-------------------------|--------------------------|--------------------------|

  W                   W                   W                   W
-------------------|-------------------|-------------------|-------------------|
-------------------|-------------------|-------------------|-------------------|
-------------------|-------------------|--5----------------|--L----------------|
--3----------------|--L----------------|--5----------------|--L----------------|
--3----------------|--L----------------|--3----------------|--L----------------|
--1----------------|--L----------------|-------------------|-------------------|

  W                   W                   Q    E  E  E  E  E  E
-------------------|-------------------|-------------------------|
-------------------|-------------------|-------------------------|
-------------------|-------------------|--3----------------------|
--6----------------|--L----------------|--3----------------------|
--6----------------|--L----------------|--1----1--1--1--1--1--1--|
--4----------------|--L----------------|-------------------------|

  E.  S Q    Q    Q       W                   W
-----------------------|-------------------|-------------------|
-----------------------|-------------------|-------------------|
--3-----3---------3----|--8----------------|-------------------|
--3-----3----6----3----|--8----------------|--8----------------|
--1-----1----6----1----|--6----------------|--8----------------|
-------------4---------|-------------------|--6----------------|

  W                   S S E  S S E  S S E    Q       E  E  E  E  E  E  E  E
-------------------|------------------------------|--------------------------|
-------------------|------------------------------|--------------------------|
-------------------|------------------------------|--------------------------|
--6----------------|------------------------------|--5--------5--------5-----|
--6----------------|--6-6-6--6-6-6--6-6-6--<>6----|--3--3--3--3--3--3--3--3--|
--4----------------|--4-4-4--4-4-4--4-4-4---------|--------------------------|

  E  E  E  E  E  E    Q       W                   W
---------------------------|-------------------|-------------------|
---------------------------|-------------------|-------------------|
---------------------------|-------------------|-------------------|
--3--------3---------------|--6----------------|--L----------------|
--1--1--1--1--1--1--<>1----|--6----------------|--L----------------|
---------------------------|--4----------------|--L----------------|

  W                   W                   E  E  E  E  E  E  E  E
-------------------|-------------------|--------------------------|
-------------------|-------------------|--------------------------|
--5----------------|-------------------|--------------------------|
--5----------------|--6----------------|--5--------5--------5-----|
--3----------------|--6----------------|--3--3--3--3--3--3--3--3--|
-------------------|--4----------------|--------------------------|

  W                   E  S S S S S S S S S S S S S S
-------------------|---------------------------------|
-------------------|---------------------------------|
--8----------------|---------------------------------|
--8----------------|---------------------------------|
--6----------------|--6------------------------------|
-------------------|--4--4-4-4-4-4-4-4-4-4-4-4-4-4-4-|

  S S S S S S S S S S S S S S S S    E  S S S S S S S S S S S S S S
----------------------------------|---------------------------------|
----------------------------------|---------------------------------|
----------------------------------|---------------------------------|
----------------------------------|--3------------------------------|
----------------------------------|--1--1-1-1-1-1-1-1-1-1-1-1-1-1-1-|
--4-4-4-4-4-4-4-4-4-4-4-4-4-4-4-4-|---------------------------------|

  Q    H        Q       W                   W
---------------------|-------------------|-------------------|
---------------------|-------------------|-------------------|
--3------------------|-------------------|-------------------|
--3------------------|--6----------------|--L----------------|
--1------------------|--6----------------|--L----------------|
---------------------|--4----------------|--L----------------|

  W                   W                   E  S S S S S S S S S S S S S S
-------------------|-------------------|---------------------------------|
-------------------|-------------------|---------------------------------|
--5----------------|--L----------------|---------------------------------|
--5----------------|--L----------------|--3------------------------------|
--3----------------|--L----------------|--1--1-1-1-1-1-1-1-1-1-1-1-1-1-1-|
-------------------|-------------------|---------------------------------|

  S S S S S S S S S S S S S S S S    W                   W
----------------------------------|-------------------|-------------------|
----------------------------------|-------------------|-------------------|
----------------------------------|-------------------|-------------------|
----------------------------------|--5----------------|--L----------------|
--1-1-1-1-1-1-1-1-1-1-1-1-1-1-1-1-|--5----------------|--L----------------|
----------------------------------|--3----------------|--L----------------|

  W                   W                   W                   W
-------------------|-------------------|-------------------|-------------------|
-------------------|-------------------|-------------------|-------------------|
-------------------|-------------------|--5----------------|--L----------------|
--6----------------|--L----------------|--5----------------|--L----------------|
--6----------------|--L----------------|--3----------------|--L----------------|
--4----------------|--L----------------|-------------------|-------------------|

  W                   Q    H        Q       W
-------------------|---------------------|-------------------|
-------------------|---------------------|-------------------|
--3----------------|--3------------------|--5----------------|
--3----------------|--3------------------|--5----------------|
--1----------------|--1------------------|--3----------------|
-------------------|---------------------|-------------------|

  W                   W                   W                   W
-------------------|-------------------|-------------------|-------------------|
-------------------|-------------------|-------------------|-------------------|
--L----------------|-------------------|--3----------------|--5----------------|
--L----------------|--6----------------|--3----------------|--5----------------|
--L----------------|--6----------------|--1----------------|--3----------------|
-------------------|--4----------------|-------------------|-------------------|

  W                   W                   W                   W
-------------------|-------------------|-------------------|-------------------|
-------------------|-------------------|-------------------|-------------------|
--L----------------|-------------------|--3----------------|--5----------------|
--L----------------|--6----------------|--3----------------|--5----------------|
--L----------------|--6----------------|--1----------------|--3----------------|
-------------------|--4----------------|-------------------|-------------------|

  W                   W                   W                   W
-------------------|-------------------|-------------------|-------------------|
-------------------|-------------------|-------------------|-------------------|
--L----------------|-------------------|--3----------------|--5----------------|
--L----------------|--6----------------|--3----------------|--5----------------|
--L----------------|--6----------------|--1----------------|--3----------------|
-------------------|--4----------------|-------------------|-------------------|

  W                   W                   Q    Q    E.  E.  E
-------------------|-------------------|-----------------------|
-------------------|-------------------|-----------------------|
--L----------------|-------------------|-------3---------------|
--L----------------|--6----------------|--6----3----6---5---3--|
--L----------------|--6----------------|--6----1----6---5---3--|
-------------------|--4----------------|--4---------4---3---1--|

  Q.     H        E     H        Q    Q       Q    H        Q
---------------------|---------------------|---------------------|
---------------------|---------------------|---------------------|
--5------------------|----------------3----|--5------------------|
--5------------------|----------------3----|--5------------------|
--3------------------|----------------1----|--3------------------|
---------------------|---------------------|---------------------|

  H        Q    E  E     Q    H        Q       H        Q    Q
----------------------|---------------------|---------------------|
----------------------|---------------------|---------------------|
-------------------3--|--5------------------|----------------3----|
-------------------3--|--5------------------|----------------3----|
-------------------1--|--3------------------|----------------1----|
----------------------|---------------------|---------------------|

  Q    H        Q       W                   W
---------------------|-------------------|-------------------|
---------------------|-------------------|-------------------|
--5------------------|-------------------|-------------------|
--5------------------|-------------------|--6----------------|
--3------------------|-------------------|--6----------------|
---------------------|-------------------|--4----------------|

  H.           Q       Q    H        Q       H        Q    E  E
--------------------|---------------------|----------------------|
--------------------|---------------------|----------------------|
---------------3----|--5------------------|-------------------3--|
--L------------3----|--5------------------|-------------------3--|
--L------------1----|--3------------------|-------------------1--|
--L-----------------|---------------------|----------------------|

  Q    H        Q       H        Q    Q       Q    H        Q
---------------------|---------------------|---------------------|
---------------------|---------------------|---------------------|
--5------------------|----------------3----|--5------------------|
--5------------------|----------------3----|--5------------------|
--3------------------|----------------1----|--3------------------|
---------------------|---------------------|---------------------|

  W                   W                   W                   W
-------------------|-------------------|-------------------|-------------------|
-------------------|-------------------|-------------------|-------------------|
-------------------|-------------------|-------------------|-------------------|
-------------------|--6----------------|--L----------------|--L----------------|
-------------------|--6----------------|--L----------------|--L----------------|
-------------------|--4----------------|--L----------------|--L----------------|

  E  S S S S S S S S S S S S S S    S S S S S S S S S S S S S S S S
---------------------------------|----------------------------------|
---------------------------------|----------------------------------|
---------------------------------|----------------------------------|
--5------------------------------|----------------------------------|
--3--3-3-3-3-3-3-3-3-3-3-3-3-3-3-|--3-3-3-3-3-3-3-3-3-3-3-3-3-3-3-3-|
---------------------------------|----------------------------------|

  E  S S S S S S S S S S S S S S    E  S S S S S S E  S S S S S S
---------------------------------|--------------------------------|
---------------------------------|--------------------------------|
---------------------------------|--------------------------------|
---------------------------------|-----------------3--------------|
--6------------------------------|--6--------------1--1-1-1-1-1-1-|
--4--4-4-4-4-4-4-4-4-4-4-4-4-4-4-|--4--4-4-4-4-4-4----------------|

  E  S S S S S S S S S S S S S S    S S S S S S S S S S S S S S S S
---------------------------------|----------------------------------|
---------------------------------|----------------------------------|
---------------------------------|----------------------------------|
--5------------------------------|----------------------------------|
--3--3-3-3-3-3-3-3-3-3-3-3-3-3-3-|--3-3-3-3-3-3-3-3-3-3-3-3-3-3-3-3-|
---------------------------------|----------------------------------|

  E  S S S S S S S S S S S S S S    E  S S S S S S E  S S S S S S
---------------------------------|--------------------------------|
---------------------------------|--------------------------------|
---------------------------------|--------------------------------|
---------------------------------|-----------------3--------------|
--6------------------------------|--6--------------1--1-1-1-1-1-1-|
--4--4-4-4-4-4-4-4-4-4-4-4-4-4-4-|--4--4-4-4-4-4-4----------------|

  H        H           H        H           E  S S S S S S S S S S S S S S
--------------------|--------------------|---------------------------------|
--------------------|--------------------|---------------------------------|
-----------5--------|--3--------5--------|---------------------------------|
--6--------5--------|--3--------5--------|---------------------------------|
--6--------3--------|--1--------3--------|--6------------------------------|
--4-----------------|--------------------|--4--4-4-4-4-4-4-4-4-4-4-4-4-4-4-|

  E  S S S S S S S S S S S S S S    H        H           H        H
---------------------------------|--------------------|--------------------|
---------------------------------|--------------------|--------------------|
---------------------------------|--5-----------------|--3--------5--------|
--3------------------------------|--5--------6--------|--3--------5--------|
--1--1-1-1-1-1-1-1-1-1-1-1-1-1-1-|--3--------6--------|--1--------3--------|
---------------------------------|-----------4--------|--------------------|

  E  S S S S S S S S S S S S S S    H        H
---------------------------------|--------------------|
---------------------------------|--------------------|
---------------------------------|-----------3--------|
---------------------------------|--6--------3--------|
--5------------------------------|--6--------1--------|
--3--3-3-3-3-3-3-3-3-3-3-3-3-3-3-|--4-----------------|

  E  S S S S S S S S S S S S S S    S S S S S S S S S S S S S S S S
---------------------------------|----------------------------------|
---------------------------------|----------------------------------|
---------------------------------|----------------------------------|
--5------------------------------|----------------------------------|
--3--3-3-3-3-3-3-3-3-3-3-3-3-3-3-|--3-3-3-3-3-3-3-3-3-3-3-3-3-3-3-3-|
---------------------------------|----------------------------------|

  E  S S S S S S S S S S S S S S    E  S S S S S S E  S S S S S S
---------------------------------|--------------------------------|
---------------------------------|--------------------------------|
---------------------------------|--------------------------------|
---------------------------------|-----------------3--------------|
--6------------------------------|--6--------------1--1-1-1-1-1-1-|
--4--4-4-4-4-4-4-4-4-4-4-4-4-4-4-|--4--4-4-4-4-4-4----------------|

  E  S S S S S S S S S S S S S S    S S S S S S S S S S S S S S S S
---------------------------------|----------------------------------|
---------------------------------|----------------------------------|
---------------------------------|----------------------------------|
--5------------------------------|----------------------------------|
--3--3-3-3-3-3-3-3-3-3-3-3-3-3-3-|--3-3-3-3-3-3-3-3-3-3-3-3-3-3-3-3-|
---------------------------------|----------------------------------|

  E  S S S S S S S S S S S S S S    E  S S S S S S E  S S S S S S
---------------------------------|--------------------------------|
---------------------------------|--------------------------------|
---------------------------------|--------------------------------|
---------------------------------|-----------------3--------------|
--6------------------------------|--6--------------1--1-1-1-1-1-1-|
--4--4-4-4-4-4-4-4-4-4-4-4-4-4-4-|--4--4-4-4-4-4-4----------------|

  H        H           H        H           E  S S S S S S S S S S S S S S
--------------------|--------------------|---------------------------------|
--------------------|--------------------|---------------------------------|
-----------5--------|--3--------5--------|---------------------------------|
--6--------5--------|--3--------5--------|---------------------------------|
--6--------3--------|--1--------3--------|--6------------------------------|
--4-----------------|--------------------|--4--4-4-4-4-4-4-4-4-4-4-4-4-4-4-|

  E  S S S S S S S S S S S S S S    H        H           H        H
---------------------------------|--------------------|--------------------|
---------------------------------|--------------------|--------------------|
---------------------------------|--5-----------------|--3--------5--------|
--3------------------------------|--5--------6--------|--3--------5--------|
--1--1-1-1-1-1-1-1-1-1-1-1-1-1-1-|--3--------6--------|--1--------3--------|
---------------------------------|-----------4--------|--------------------|

  E  S S S S S S S S S S S S S S    H        H           Q    H        Q
---------------------------------|--------------------|---------------------|
---------------------------------|--------------------|---------------------|
---------------------------------|-----------3--------|--5------------------|
---------------------------------|--6--------3--------|--5------------------|
--5------------------------------|--6--------1--------|--3------------------|
--3--3-3-3-3-3-3-3-3-3-3-3-3-3-3-|--4-----------------|---------------------|

  Q    H        Q       Q    H        Q       W
---------------------|---------------------|-------------------|
---------------------|---------------------|-------------------|
--5------------------|--5------------------|-------------------|
--5------------------|--5------------------|--6----------------|
--3------------------|--3------------------|--6----------------|
---------------------|---------------------|--4----------------|

  Q    H        Q       Q    H        Q       Q    H        Q
---------------------|---------------------|---------------------|
---------------------|---------------------|---------------------|
--5------------------|--5------------------|--5------------------|
--5------------------|--5------------------|--5------------------|
--3------------------|--3------------------|--3------------------|
---------------------|---------------------|---------------------|

  W                   W                   W
-------------------|-------------------|-------------------|
-------------------|-------------------|-------------------|
-------------------|-------------------|-------------------|
--6----------------|--5----------------|-------------------|
--6----------------|--5----------------|-------------------|
--4----------------|--3----------------|-------------------|

  E  S S S S S S S S S S S S S S    S S S S S S S S S S S S S S S S
---------------------------------|----------------------------------|
---------------------------------|----------------------------------|
---------------------------------|----------------------------------|
--5------------------------------|----------------------------------|
--3--3-3-3-3-3-3-3-3-3-3-3-3-3-3-|--3-3-3-3-3-3-3-3-3-3-3-3-3-3-3-3-|
---------------------------------|----------------------------------|

  E  S S S S S S S S S S S S S S    S S S S S S S S S S S S S S S S
---------------------------------|----------------------------------|
---------------------------------|----------------------------------|
---------------------------------|----------------------------------|
---------------------------------|----------------------------------|
--6------------------------------|----------------------------------|
--4--4-4-4-4-4-4-4-4-4-4-4-4-4-4-|--4-4-4-4-4-4-4-4-4-4-4-4-4-4-4-4-|

  E  S S S S E  H           E  S S S S E  H           E  E  E  E  E  E  E  E
-------------------------|-------------------------|--------------------------|
-------------------------|-------------------------|--------------------------|
-------------------------|-------------------------|--------------------------|
--3----------3--L--------|--3----------3--L--------|--------5-----------5-----|
--1--1-1-1-1-1--L--------|--1--1-1-1-1-1--L--------|--3--3--3--3--3--3--3--3--|
-------------------------|-------------------------|--------------------------|

  E  Q    E  E  E  E  E     E  S S S S S S S S S S S S S S
-------------------------|---------------------------------|
-------------------------|---------------------------------|
-----5----3--5-----------|---------------------------------|
-----5----3--5-----------|--5------------------------------|
--3-------------3--3--3--|--3--3-3-3-3-3-3-3-3-3-3-3-3-3-3-|
-------------------------|---------------------------------|

  S S S S S S S S S S S S S S S S    E  S S S S S S S S S S S S S S
----------------------------------|---------------------------------|
----------------------------------|---------------------------------|
----------------------------------|---------------------------------|
----------------------------------|---------------------------------|
--3-3-3-3-3-3-3-3-3-3-3-3-3-3-3-3-|--6------------------------------|
----------------------------------|--4--4-4-4-4-4-4-4-4-4-4-4-4-4-4-|

  S S S S S S S S S S S S S S S S    E  S S S S S S S S S S S S S S
----------------------------------|---------------------------------|
----------------------------------|---------------------------------|
----------------------------------|---------------------------------|
----------------------------------|--3------------------------------|
----------------------------------|--1--1-1-1-1-1-1-1-1-1-1-1-1-1-1-|
--4-4-4-4-4-4-4-4-4-4-4-4-4-4-4-4-|---------------------------------|

  S S S S S S S S S S S S S S S S    W                   W
----------------------------------|-------------------|-------------------|
----------------------------------|-------------------|-------------------|
----------------------------------|--5----------------|--5----------------|
----------------------------------|--5----------------|--5----------------|
--1-1-1-1-1-1-1-1-1-1-1-1-1-1-1-1-|--3----------------|--3----------------|
----------------------------------|-------------------|-------------------|

  E  S S S S S S S S S S S S S S    E  E  E  E  H
---------------------------------|-----------------------|
---------------------------------|-----------------------|
---------------------------------|-----------------------|
---------------------------------|--------------3--------|
--3------------------------------|--3--3-----3--3--------|
--1--1-1-1-1-1-1-1-1-1-1-1-1-1-1-|--1--1-----1--1--------|

  E  E  H        E  E     E  E  H        Q
-----------------------|----------------------|
-----------------------|----------------------|
--5--5--------------5--|--5--5----------------|
--5--5--------------5--|--5--5----------------|
--3--3--------------3--|--3--3----------------|
-----------------------|----------------------|

  E  S S S S S S S S S S S S S S    S S S S S S S S S S S S S S S S
---------------------------------|----------------------------------|
---------------------------------|----------------------------------|
---------------------------------|----------------------------------|
---------------------------------|----------------------------------|
--6------------------------------|----------------------------------|
--4--4-4-4-4-4-4-4-4-4-4-4-4-4-4-|--4-4-4-4-4-4-4-4-4-4-4-4-4-4-4-4-|

  Q    H        Q       Q    H        Q       W
---------------------|---------------------|-------------------|
---------------------|---------------------|-------------------|
--3------------------|-------3--------L----|--8----------------|
--3------------------|-------3--------L----|--8----------------|
--1------------------|-------1--------L----|--6----------------|
---------------------|---------------------|-------------------|

  W                   W                   S S E  S S E  S S E  Q
-------------------|-------------------|----------------------------|
-------------------|-------------------|----------------------------|
-------------------|-------------------|----------------------------|
--8----------------|--6----------------|----------------------------|
--8----------------|--6----------------|--6-6-6--6-6-6--6-6-6--6----|
--6----------------|--4----------------|--4-4-4--4-4-4--4-4-4--4----|

  E  S S S S S S S S S S S S S S    E  S S S S S S S S S S S S S S
---------------------------------|---------------------------------|
---------------------------------|---------------------------------|
---------------------------------|---------------------------------|
--5------------------------------|--3------------------------------|
--3--3-3-3-3-3-3-3-3-3-3-3-3-3-3-|--1--1-1-1-1-1-1-1-1-1-1-1-1-1-1-|
---------------------------------|---------------------------------|

  W                   W                   W                   W
-------------------|-------------------|-------------------|-------------------|
-------------------|-------------------|-------------------|-------------------|
-------------------|-------------------|--5----------------|-------------------|
--6----------------|--L----------------|--5----------------|--6----------------|
--6----------------|--L----------------|--3----------------|--6----------------|
--4----------------|--L----------------|-------------------|--4----------------|

  E  E  E  E  E  E  E  E     W                   W
--------------------------|-------------------|-------------------|
--------------------------|-------------------|-------------------|
--------------------------|--8----------------|-------------------|
--5--------5--------5-----|--8----------------|--3----------------|
--3--3--3--3--3--3--3--3--|--6----------------|--3----------------|
--------------------------|-------------------|--1----------------|

  W                   W                   W                   W
-------------------|-------------------|-------------------|-------------------|
-------------------|-------------------|-------------------|-------------------|
-------------------|--5----------------|--3----------------|-------------------|
--L----------------|--5----------------|--3----------------|--6----------------|
--L----------------|--3----------------|--1----------------|--6----------------|
--L----------------|-------------------|-------------------|--4----------------|

  W                   W                   W
-------------------|-------------------|-------------------|
-------------------|-------------------|-------------------|
-------------------|--5----------------|--L----------------|
--L----------------|--5----------------|--L----------------|
--L----------------|--3----------------|--L----------------|
--L----------------|-------------------|-------------------|

  E  S S S S S S S S S S S S S S    S S S S S S S S S S S S S S S S
---------------------------------|----------------------------------|
---------------------------------|----------------------------------|
---------------------------------|----------------------------------|
--3------------------------------|----------------------------------|
--1--1-1-1-1-1-1-1-1-1-1-1-1-1-1-|--1-1-1-1-1-1-1-1-1-1-1-1-1-1-1-1-|
---------------------------------|----------------------------------|

  W                   H        H           W
-------------------|--------------------|-------------------|
-------------------|--------------------|-------------------|
-------------------|-----------3--------|-------------------|
--5----------------|--6--------3--------|--6----------------|
--5----------------|--6--------1--------|--6----------------|
--3----------------|--4-----------------|--4----------------|

  W                   E  Q    E  E  Q    E     E  Q    E  E  Q    E
-------------------|------------------------|------------------------|
-------------------|------------------------|------------------------|
-------------------|-----5----------5-------|-----5----------5-------|
--L----------------|-----5----------5-------|-----5----------5-------|
--L----------------|--3--3----3--3--3----3--|--3--3----3--3--3----3--|
--L----------------|------------------------|------------------------|

  W                   W                   W                   W
-------------------|-------------------|-------------------|-------------------|
-------------------|-------------------|-------------------|-------------------|
--3----------------|--L----------------|--5----------------|--L----------------|
--3----------------|--L----------------|--5----------------|--L----------------|
--1----------------|--L----------------|--3----------------|--L----------------|
-------------------|-------------------|-------------------|-------------------|

  W                   W                   W                   W
-------------------|-------------------|-------------------|-------------------|
-------------------|-------------------|-------------------|-------------------|
--5----------------|--L----------------|-------------------|-------------------|
--5----------------|--L----------------|--6----------------|--L----------------|
--3----------------|--L----------------|--6----------------|--L----------------|
-------------------|-------------------|--4----------------|--L----------------|

  W                   W                   W                   W
-------------------|-------------------|-------------------|-------------------|
-------------------|-------------------|-------------------|-------------------|
--3----------------|--L----------------|--8----------------|--L----------------|
--3----------------|--L----------------|--8----------------|--L----------------|
--1----------------|--L----------------|--6----------------|--L----------------|
-------------------|-------------------|-------------------|-------------------|

  W                   W                   W                   W
-------------------|-------------------|-------------------|-------------------|
-------------------|-------------------|-------------------|-------------------|
--5----------------|--L----------------|-------------------|-------------------|
--5----------------|--L----------------|--6----------------|--L----------------|
--3----------------|--L----------------|--6----------------|--L----------------|
-------------------|-------------------|--4----------------|--L----------------|

  W                   W                   Q    H        Q
-------------------|-------------------|---------------------|
-------------------|-------------------|---------------------|
--3----------------|--L----------------|---------------------|
--3----------------|--L----------------|--5------------------|
--1----------------|--L----------------|--5------------------|
-------------------|-------------------|--3------------------|

  W                   W                   W                   W
-------------------|-------------------|-------------------|-------------------|
-------------------|-------------------|-------------------|-------------------|
-------------------|-------------------|-------------------|--5----------------|
-------------------|--6----------------|--L----------------|--5----------------|
-------------------|--6----------------|--L----------------|--3----------------|
-------------------|--4----------------|--L----------------|-------------------|

  W                   E  S S S S S S S S S S S S S S
-------------------|---------------------------------|
-------------------|---------------------------------|
--L----------------|---------------------------------|
--L----------------|--3------------------------------|
--L----------------|--1--1-1-1-1-1-1-1-1-1-1-1-1-1-1-|
-------------------|---------------------------------|

  S S S S S S S S S S S S S S S S    W                   W
----------------------------------|-------------------|-------------------|
----------------------------------|-------------------|-------------------|
----------------------------------|-------------------|-------------------|
----------------------------------|--5----------------|--L----------------|
--1-1-1-1-1-1-1-1-1-1-1-1-1-1-1-1-|--5----------------|--L----------------|
----------------------------------|--3----------------|--L----------------|

  W                   W                   W                   W
-------------------|-------------------|-------------------|-------------------|
-------------------|-------------------|-------------------|-------------------|
-------------------|-------------------|--5----------------|--L----------------|
--6----------------|--L----------------|--5----------------|--L----------------|
--6----------------|--L----------------|--3----------------|--L----------------|
--4----------------|--L----------------|-------------------|-------------------|

  W                   Q    H        Q       E  S S S S S S S S S S S S S S
-------------------|---------------------|---------------------------------|
-------------------|---------------------|---------------------------------|
--3----------------|--3------------------|---------------------------------|
--3----------------|--3------------------|--5------------------------------|
--1----------------|--1------------------|--3--3-3-3-3-3-3-3-3-3-3-3-3-3-3-|
-------------------|---------------------|---------------------------------|

  S S S S S S S S S S S S S S S S    E  S S S S S S S S S S S S S S
----------------------------------|---------------------------------|
----------------------------------|---------------------------------|
----------------------------------|---------------------------------|
----------------------------------|---------------------------------|
--3-3-3-3-3-3-3-3-3-3-3-3-3-3-3-3-|--6------------------------------|
----------------------------------|--4--4-4-4-4-4-4-4-4-4-4-4-4-4-4-|

  S S S S S S S S S S S S S S S S    E  S S S S S S S S S S S S S S
----------------------------------|---------------------------------|
----------------------------------|---------------------------------|
----------------------------------|---------------------------------|
----------------------------------|---------------------------------|
----------------------------------|--3------------------------------|
--4-4-4-4-4-4-4-4-4-4-4-4-4-4-4-4-|--1--1-1-1-1-1-1-1-1-1-1-1-1-1-1-|

  S S S S S S S S S S S S S S S S    E  S S S S S S S S S S S S S S
----------------------------------|---------------------------------|
----------------------------------|---------------------------------|
----------------------------------|---------------------------------|
----------------------------------|---------------------------------|
----------------------------------|--6------------------------------|
--1-1-1-1-1-1-1-1-1-1-1-1-1-1-1-1-|--4--4-4-4-4-4-4-4-4-4-4-4-4-4-4-|

  S S S S S S S S S S S S S S S S    E  S S S S S S S S S S S S S S
----------------------------------|---------------------------------|
----------------------------------|---------------------------------|
----------------------------------|---------------------------------|
----------------------------------|--5------------------------------|
----------------------------------|--3--3-3-3-3-3-3-3-3-3-3-3-3-3-3-|
--4-4-4-4-4-4-4-4-4-4-4-4-4-4-4-4-|---------------------------------|

  S S S S S S S S S S S S S S S S    E  S S S S S S S S S S S S S S
----------------------------------|---------------------------------|
----------------------------------|---------------------------------|
----------------------------------|---------------------------------|
----------------------------------|---------------------------------|
--3-3-3-3-3-3-3-3-3-3-3-3-3-3-3-3-|--6------------------------------|
----------------------------------|--4--4-4-4-4-4-4-4-4-4-4-4-4-4-4-|

  S S S S S S S S S S S S S S S S    E  S S S S S S S S S S S S S S
----------------------------------|---------------------------------|
----------------------------------|---------------------------------|
----------------------------------|---------------------------------|
----------------------------------|---------------------------------|
----------------------------------|--3------------------------------|
--4-4-4-4-4-4-4-4-4-4-4-4-4-4-4-4-|--1--1-1-1-1-1-1-1-1-1-1-1-1-1-1-|

  S S S S S S S S S S S S S S S S    W                   W
----------------------------------|-------------------|-------------------|
----------------------------------|-------------------|-------------------|
----------------------------------|-------------------|-------------------|
----------------------------------|-------------------|-------------------|
----------------------------------|-------------------|-------------------|
--1-1-1-1-1-1-1-1-1-1-1-1-1-1-1-1-|-------------------|-------------------|

  E  E  E  E  E  E  E  E     E  E  E  E  E  E  E  E
--------------------------|--------------------------|
--------------------------|--------------------------|
--5--5--5--5-----5-----5--|-----5-----5--5--5--5-----|
--5--5--5--5-----5-----5--|-----5-----5--5--5--5-----|
--3--3--3--3-----3-----3--|-----3-----3--3--3--3-----|
--------------------------|--------------------------|

  E  E  E  E  E  E  E  E     E  E  E  E  E  E  E  E
--------------------------|--------------------------|
--------------------------|--------------------------|
--8--8--8--8-----8-----8--|-----8-----8--8--8--8-----|
--8--8--8--8-----8-----8--|-----8-----8--8--8--8-----|
--6--6--6--6-----6-----6--|-----6-----6--6--6--6-----|
--------------------------|--------------------------|

  E  E  E  E  E  E  E  E     E  E  E  E  E  E  E  E     W
--------------------------|--------------------------|-------------------|
--------------------------|--------------------------|-------------------|
--------------------------|--------------------------|-------------------|
--3--3--3--3-----3-----3--|-----3-----3--3--3--3-----|--5----------------|
--3--3--3--3-----3-----3--|-----3-----3--3--3--3-----|--5----------------|
--1--1--1--1-----1-----1--|-----1-----1--1--1--1-----|--3----------------|

  W                   W                   W                   W
-------------------|-------------------|-------------------|-------------------|
-------------------|-------------------|-------------------|-------------------|
-------------------|-------------------|-------------------|-------------------|
--L----------------|--L----------------|--L----------------|--L----------------|
--L----------------|--L----------------|--L----------------|--L----------------|
--L----------------|--L----------------|--L----------------|--L----------------|

  W                   E  E  E  E  E  E  E  E     Q    H        Q
-------------------|--------------------------|---------------------|
-------------------|--------------------------|---------------------|
-------------------|--------------------------|---------------------|
--L----------------|--------------------------|--5------------------|
--L----------------|--5--5--5--5--5--5--5--5--|--5------------------|
--L----------------|--3--3--3--3--3--3--3--3--|--3------------------|

               |----3----|
  S S S S Q    Q    Q    Q       Q     H        Q
------------------------------|----------------------||
------------------------------|----------------------||
---------------5----5----5----|--5\------------------||
--5-5-5-5-5----5----5----5----|--5\------------------||
--3-3-3-3-3----3----3----3----|--3\------------------||
------------------------------|----------------------||