Dream Theater - The Best Of Times Text Guitar Tab

Learn the song with the online tablature player
 - Black Clouds & Silver Linnings -

         The Best Of Times

e:-----------------------------------------------------------------|
B:-----------------------------------------------------------------|
G:2-4-5~-5/9--10~---4-5/7~--12~-10~-9-7-9~-------------------------|
D:-----------------------------------------------------------------|
A:-----------------------------------------------------------------|
E:-----------------------------------------------------------------|

e:----------------------------------------(0~)---------------------|
B:-----------------------------------------(0~)--------------------|
G:-5~-4~-5/9~--9~-10~-7~--5--4---------------1~--------------------|
D:-----------------------------7~-/9~-6~------2~-------------------|
A:---------------------------------------------2~------------------|
E:----------------------------------------------x------------------|

e:-----------------------------------------------------------------|
B:-----------------------------------------------------------------|
G:------5--5/9-/12-10--9-9h10p9/7--4-5/7-12-----10---9-------------|
D:--6-7---------------------------------------11---11-----8--9-----|
A:/7----------------------------------------------------10---------|
E:-----------------------------------------------------------------|

e:----------------------------------x------------------------------|
B:-------------------------------3---(0^)--------------------------|
G:------5-5/9-9~-9h10p9/7--5-7\4------(1~)-------------------------|
D:---6-7--------------------------------2~-------------------------|
A:/7~------------------------------------2~------------------------|
E:----------------------------------------x------------------------|