Eagles - Peaceful Easy Feeling Text Bass Tab

Learn song with the online tabulature player
Very simple but great song
Be creative with the fills on the end of verse

Intro:

G|------------------------------------|
D|------------------------------------|
A|-7-7------7-7-------7-7-------7-7---|
E|----7--------7---------7---------7--| Repeat 2X  (No repeat after end chorus)

Verse

G|------------------------------------------------------------
D|--------7-7------------7-7-------------7-7------9-9----9-9--
A|-7-7-------7----7-7-------7----7-7--------7--------9------9-
E|----7--------------7--------------7------------------------- Repeat 2X

chorus
G|---------------------------------------------------------------|
D|--7-7------7-7----------------------7-7----7-7-----------------|
A|-----7--------7-----7-7-----7-7--------7------7----9-999-------|
E|-----------------------7-------7--------------------------7-777|

end chorus
G|--------------------------------------|
D|--------------------------------------|
A|---7-7-----9-9------12-12-----14-14---|
E|------7-------9----------12--------14-| Back to intro