Elvis Presley - Can't Help Falling In Love Text Bass Tab

Learn the song with the online tablature player
elvis presley_cant help falling in love

 |               |               |               |
|----------------------------------------------------------------|
|----------------------------------------------------------------|
|----------------------------------------------------------------|
|1-----------------------1-------1-----------------------1-------|

 |               |               |               |
|----------------------------------------------------------------|
|----------------------------------------------------------------|
|----------------------------------------------------------------|
|1-----------------------1-------1-----------------------1-------|

 |               |               |               |
|----------------------------------------------------------------|
|----------------------------------------------------------------|
|----------------------------------------------------------------|
|1-----------------------1-------1-----------------------1-------|

 |               |               |               |
|----------------------------------------------------------------|
|----------------------------------------------------------------|
|----------------------------------------------------------------|
|1-----------------------1-------1-----------------------1-------|

 |               |               |               |
|----------------------------------------------------------------|
|----------------------------------------------------------------|
|--------------------------------0-----------------------0-------|
|1-----------------------1---------------------------------------|

 |               |               |               |
|----------------------------------------------------------------|
|0-----------------------0-------0-----------------------0-------|
|----------------------------------------------------------------|
|----------------------------------------------------------------|

 |               |               |               |
|----------------------------------------------------------------|
|----------------------------------------------------------------|
|1-----------------------1---------------------------------------|
|--------------------------------1-----------------------1-------|

 |               |               |               |
|----------------------------------------------------------------|
|----------------------------------------------------------------|
|3-----------------------3-------3-----------------------3-------|
|----------------------------------------------------------------|

 |               |               |               |
|----------------------------------------------------------------|
|----------------------------------------------------------------|
|1-----------------------1-------3-----------------------3-------|
|----------------------------------------------------------------|

 |               |               |               |
|----------------------------------------------------------------|
|----------------------------------------------------------------|
|--------------------------------1-----------------------1-------|
|1-----------------------1---------------------------------------|

 |               |               |               |
|----------------------------------------------------------------|
|----------------------------------------------------------------|
|--------------------------------3-----------------------3-------|
|1-----------------------1---------------------------------------|

 |               |               |               |
|----------------------------------------------------------------|
|----------------------------------------------------------------|
|----------------------------------------------------------------|
|1-----------------------1-------1-----------------------1-------|

 |               |               |               |
|----------------------------------------------------------------|
|----------------------------------------------------------------|
|--------------------------------0-----------------------0-------|
|1-----------------------1---------------------------------------|

 |               |               |               |
|----------------------------------------------------------------|
|0-----------------------0-------0-----------------------0-------|
|----------------------------------------------------------------|
|----------------------------------------------------------------|

 |               |               |               |
|----------------------------------------------------------------|
|----------------------------------------------------------------|
|1-----------------------1---------------------------------------|
|--------------------------------1-----------------------1-------|

 |               |               |               |
|----------------------------------------------------------------|
|----------------------------------------------------------------|
|3-----------------------3-------3-----------------------3-------|
|----------------------------------------------------------------|

 |               |               |               |
|----------------------------------------------------------------|
|----------------------------------------------------------------|
|1-----------------------1-------3-----------------------3-------|
|----------------------------------------------------------------|

 |               |               |               |
|----------------------------------------------------------------|
|----------------------------------------------------------------|
|--------------------------------1-----------------------1-------|
|1-----------------------1---------------------------------------|

 |               |               |               |
|----------------------------------------------------------------|
|----------------------------------------------------------------|
|--------------------------------3-----------------------3-------|
|1-----------------------1---------------------------------------|

 |               |               |               |
|----------------------------------------------------------------|
|----------------------------------------------------------------|
|----------------------------------------------------------------|
|1-----------------------1-------1-----------------------1-------|

 |               |               |               |
|----------------------------------------------------------------|
|--------------------------------2-----------------------2-------|
|0-----------------------0---------------------------------------|
|----------------------------------------------------------------|

 |               |               |               |
|----------------------------------------------------------------|
|--------------------------------2-----------------------2-------|
|0-----------------------0---------------------------------------|
|----------------------------------------------------------------|

 |               |               |               |
|----------------------------------------------------------------|
|--------------------------------2-----------------------2-------|
|0-----------------------0---------------------------------------|
|----------------------------------------------------------------|

 |               |               |               |
|----------------------------------------------------------------|
|----------------------------------------------------------------|
|--------------------------------3-----------------------3-------|
|3-----------------------3---------------------------------------|

 |               |               |               |
|----------------------------------------------------------------|
|----------------------------------------------------------------|
|--------------------------------0-----------------------0-------|
|1-----------------------1---------------------------------------|

 |               |               |               |
|----------------------------------------------------------------|
|0-----------------------0-------0-----------------------0-------|
|----------------------------------------------------------------|
|----------------------------------------------------------------|

 |               |               |               |
|----------------------------------------------------------------|
|----------------------------------------------------------------|
|1-----------------------1---------------------------------------|
|--------------------------------1-----------------------1-------|

 |               |               |               |
|----------------------------------------------------------------|
|----------------------------------------------------------------|
|3-----------------------3-------3-----------------------3-------|
|----------------------------------------------------------------|

 |               |               |               |
|----------------------------------------------------------------|
|----------------------------------------------------------------|
|1-----------------------1-------3-----------------------3-------|
|----------------------------------------------------------------|

 |               |               |               |
|----------------------------------------------------------------|
|0-----------------------0---------------------------------------|
|----------------------------------------------------------------|
|--------------------------------3-----------------------3-------|

 |               |               |               |
|----------------------------------------------------------------|
|----------------------------------------------------------------|
|--------------------------------3-----------------------3-------|
|1-----------------------1---------------------------------------|

 |               |               |               |
|----------------------------------------------------------------|
|----------------------------------------------------------------|
|----------------------------------------------------------------|
|1-----------------------1-------1-----------------------1-------|

 |               |               |               |
|----------------------------------------------------------------|
|----------------------------------------------------------------|
|--------------------------------0-----------------------0-------|
|1-----------------------1---------------------------------------|

 |               |               |               |
|----------------------------------------------------------------|
|0-----------------------0-------0-----------------------0-------|
|----------------------------------------------------------------|
|----------------------------------------------------------------|

 |               |               |               |
|----------------------------------------------------------------|
|----------------------------------------------------------------|
|1-----------------------1---------------------------------------|
|--------------------------------1-----------------------1-------|

 |               |               |               |
|----------------------------------------------------------------|
|----------------------------------------------------------------|
|3-----------------------3-------3-----------------------3-------|
|----------------------------------------------------------------|

 |               |               |               |
|----------------------------------------------------------------|
|----------------------------------------------------------------|
|1-----------------------1-------3-----------------------3-------|
|----------------------------------------------------------------|

 |               |               |               |
|----------------------------------------------------------------|
|----------------------------------------------------------------|
|--------------------------------1-----------------------1-------|
|1-----------------------1---------------------------------------|

 |               |               |               |
|----------------------------------------------------------------|
|----------------------------------------------------------------|
|--------------------------------3-----------------------3-------|
|1-----------------------1---------------------------------------|

 |               |               |               |
|----------------------------------------------------------------|
|----------------------------------------------------------------|
|----------------------------------------------------------------|
|1-----------------------1-------1-----------------------1-------|

 |               |               |               |
|----------------------------------------------------------------|
|----------------------------------------------------------------|
|--------------------------------0-----------------------0-------|
|1-----------------------1---------------------------------------|

 |               |               |               |
|----------------------------------------------------------------|
|0-----------------------0-------0-----------------------0-------|
|----------------------------------------------------------------|
|----------------------------------------------------------------|

 |               |               |               |
|----------------------------------------------------------------|
|----------------------------------------------------------------|
|1-----------------------1---------------------------------------|
|--------------------------------1-----------------------1-------|

 |               |               |               |
|----------------------------------------------------------------|
|----------------------------------------------------------------|
|3-----------------------3-------3-----------------------3-------|
|----------------------------------------------------------------|

 |               |               |               |
|----------------------------------------------------------------|
|----------------------------------------------------------------|
|1-----------------------1-------3-----------------------3-------|
|----------------------------------------------------------------|

 |               |               |               |
|----------------------------------------------------------------|
|----------------------------------------------------------------|
|--------------------------------1-----------------------1-------|
|1-----------------------1---------------------------------------|

 |               |               |               |
|----------------------------------------------------------------|
|----------------------------------------------------------------|
|--------------------------------3-----------------------3-------|
|1-----------------------1---------------------------------------|

 |               |               |               |
|----------------------------------------------------------------|
|----------------------------------------------------------------|
|----------------------------------------------------------------|
|1-----------------------1-------1-----------------------1-------|

 |               |               |               |
|----------------------------------------------------------------|
|--------------------------------2-----------------------2-------|
|0-----------------------0---------------------------------------|
|----------------------------------------------------------------|

 |               |               |               |
|----------------------------------------------------------------|
|--------------------------------2-----------------------2-------|
|0-----------------------0---------------------------------------|
|----------------------------------------------------------------|

 |               |               |               |
|----------------------------------------------------------------|
|--------------------------------2-----------------------2-------|
|0-----------------------0---------------------------------------|
|----------------------------------------------------------------|

 |               |               |               |
|----------------------------------------------------------------|
|----------------------------------------------------------------|
|--------------------------------3-----------------------3-------|
|3-----------------------3---------------------------------------|

 |               |               |               |
|----------------------------------------------------------------|
|----------------------------------------------------------------|
|--------------------------------0-----------------------0-------|
|1-----------------------1---------------------------------------|

 |               |               |               |
|----------------------------------------------------------------|
|0-----------------------0-------0-----------------------0-------|
|----------------------------------------------------------------|
|----------------------------------------------------------------|

 |               |               |               |
|----------------------------------------------------------------|
|----------------------------------------------------------------|
|1-----------------------1---------------------------------------|
|--------------------------------1-----------------------1-------|

 |               |               |               |
|----------------------------------------------------------------|
|----------------------------------------------------------------|
|3-----------------------3-------3-----------------------3-------|
|----------------------------------------------------------------|

 |               |               |               |
|----------------------------------------------------------------|
|----------------------------------------------------------------|
|1-----------------------1-------3-----------------------3-------|
|----------------------------------------------------------------|

 |               |               |               |
|----------------------------------------------------------------|
|0-----------------------0---------------------------------------|
|----------------------------------------------------------------|
|--------------------------------3-----------------------3-------|

 |               |               |               |
|----------------------------------------------------------------|
|----------------------------------------------------------------|
|--------------------------------3-----------------------3-------|
|1-----------------------1---------------------------------------|

 |               |               |               |
|----------------------------------------------------------------|
|----------------------------------------------------------------|
|----------------------------------------------------------------|
|1-----------------------1-------1-----------------------1-------|

 |               |               |               |
|----------------------------------------------------------------|
|----------------------------------------------------------------|
|1-----------------------1-------3-----------------------3-------|
|----------------------------------------------------------------|

 |               |               |               |
|----------------------------------------------------------------|
|0-----------------------0---------------------------------------|
|----------------------------------------------------------------|
|--------------------------------3-----------------------3-------|

 |               |               |               |
|----------------------------------------------------------------|
|----------------------------------------------------------------|
|--------------------------------3-----------------------3-------|
|1-----------------------1---------------------------------------|

 |               |               |               |
|----------------------------------------------------------------|
|----------------------------------------------------------------|
|----------------------------------------------------------------|
|1-----------------------1-------1-----------------------1-------|

 |               |               |               |
|----------------------------------------------------------------|
|----------------------------------------------------------------|
|1-----------------------1-------3-----------------------3-------|
|----------------------------------------------------------------|

 |               |               |               |
|----------------------------------------------------------------|
|0-----------------------0---------------------------------------|
|----------------------------------------------------------------|
|--------------------------------3-----------------------3-------|

 |               |               |               |
|----------------------------------------------------------------|
|----------------------------------------------------------------|
|--------------------------------3-----------------------3-------|
|1-----------------------1---------------------------------------|

 |               |               |               |
|----------------------------------------------------------------|
|----------------------------------------------------------------|
|----------------------------------------------------------------|
|1---------------------------------------------------------------|