Falco - Out Of The Dark (Solo) Text Guitar Tab

Learn the song with the online tablature player
during the vers:

   A      F       A      G
e|--------------|-----------------------------|
a|--------------|-----------------------------|
g|--------------|-----------------------------|
D|-7------1-----|-7------5--------------------|
A|-7------3-----|-7------5--------------------|
E|-5------3-----|-5------3--------------------|

Chorus

   A      F      C      G
e|-------------------------------------------|
a|-------------------------------------------|
g|---------------5---------------------------|
D|-7------1------5------5--------------------|
A|-7------3------3------5--------------------|
E|-5------3-------------3--------------------|

Keybord/Violine(?) during the chorus

thats not 100% exact but it sounds good
   A       F       C         G
e|-5~-7-8-13~------5~-7-8-10~-8-7-5~-3~------|
a|-------------------------------------------|
g|-------------------------------------------|
D|-------------------------------------------|
A|-------------------------------------------|
E|-------------------------------------------|

Solo

e|------------------------12-10-8-7-----------------------12-10-8-10-8-7---|
a|---------------------8~-----------10-10~-10-8-----10-8----------------10-|
g|7~7-777--------------------------------------9--------9------------------|
D|-------10-7-7---7-10---------------------------7-------------------------|
A|--------------10---------------------------------------------------------|
E|-------------------------------------------------------------------------|

during the solo played the chorus

let ring out with:

    A
e|------|
a|------|
g|------|
D|--7---|
A|--7---|
E|--5---|