Gojira - Toxic Garbage Island Text Guitar Tab

Learn the song with the online tablature player
                              TOXIC GARBAGE ISLAND
                              As recorded by Gojira
                   (From the 2008 Album THE WAY OF ALL FLESH)

Gtr I (C G C F A D) - 'Guitar I'
Gtr II (C G C F A D) - 'Guitar II'

   Intro
    Q=147
   4/4
    Gtrs I, II
    PM--------------|
    S S S S S S S S E.  E. E   S E E. E E. E. E
||---------------------------|------------------|
||o-----------------------|------------------|
||------------------------|------------------|
||------------------------|----------0-------|
||o--------------------------|----------4-------|
||--2-2-2-2-2-2-2-2-2------0-|-2-2-0--1----0--1-|

  PM--------------|
  S S S S S S S S E.  E. E   S E E. E E. E. E
|--------------------------|-------------------||
|-----------------------|------------------o||
|-----------------------|-------------------||
|-----------------------|----------0--------||
|--------------------------|----------4-------o||
|-2-2-2-2-2-2-2-2-2------0-|-2-2-0--1----0--1--||

      S  S  S  S  S  S  S  S  E. E. E    E.   E. E E. E. E
||------------------------------------|--------------------|
||o-----------------------------------|--------------------|
||------------------------------------|--------------------|
||------------------------------------|------------0-------|
||o-----------------------------------|------------4-------|
||--/18-18-18-18-18-18-18-18-18\-0--1-|-[3]b5-0--1----0--1-|

                                      1.
    S  S  S  S  S  S  S  S  E. E. E    E.   E. E E. E. E
|-----------------------------------|----------------------||
|-----------------------------------|---------------------o||
|-----------------------------------|----------------------||
|-----------------------------------|------------0---------||
|-----------------------------------|------------4--------o||
|-/18-18-18-18-18-18-18-18-18\-0--1-|-[3]b5-0--1----0--1---||

  2.
              \1
   E    E  E  B
|-------------------||
|----------------||
|----------------||
|----------------||
|-------------------||
|-[3]b5-0--1--------||

   Pre-Verse
    PM------------|    PM-|      PM-|
    S S S S S S S S E. E. E   E. E. E E. E. E
||--------------------------|-----------------|
||o-------------------------|-----------------|
||--------------------------|-----------------|
||------------------0-------|-5-------5--4--3-|
||o-----------------0--0--1-|-3--0--1-3--2--1-|
||--0-0-0-0-0-0-0-0-0--0--1-|-3--0--1-3--2--1-|

  PM------------|    PM-|      PM-|
  S S S S S S S S E. E. E   E. E. E E. E. E
|-------------------------|-------------------||
|-------------------------|------------------o||
|-------------------------|-------------------||
|-----------------0-------|-5-------5--4--3---||
|-----------------0--0--1-|-3--0--1-3--2--1--o||
|-0-0-0-0-0-0-0-0-0--0--1-|-3--0--1-3--2--1---||

   Verse
    PM------------|    PM-|      PM-|
    S S S S S S S S E. E. E   E. E. E E. E. E
||--------------------------|-----------------|
||o-------------------------|-----------------|
||--------------------------|-----------------|
||------------------0-------|-5-------5--4--3-|
||o-----------------0--0--1-|-3--0--1-3--2--1-|
||--0-0-0-0-0-0-0-0-0--0--1-|-3--0--1-3--2--1-|

                            1.
  PM------------|    PM-|      PM-|
  S S S S S S S S E. E. E   E. E. E E. E. E
|-------------------------|-------------------||
|-------------------------|------------------o||
|-------------------------|-------------------||
|-----------------0-------|-5-------5--4--3---||
|-----------------0--0--1-|-3--0--1-3--2--1--o||
|-0-0-0-0-0-0-0-0-0--0--1-|-3--0--1-3--2--1---||

  2.
 17/16
  E  E  E E  E  E
|------------------||
|------------------||
|------------------||
|-5----------------||
|-3----------------||
|-3--0--1-3--2--1--||

   Chorus
   9/8
    E  E  E  E  E  E    E  E  E  E  E  E
||--------------------|-------------------|
||o-------------------|-------------------|
||--------------------|-------------------|
||--------------------|-------------------|
||o-------5--------5--|-------5--------5--|
||--0--3-----0--3-----|-0--3-----0--3-----|

  E  E  E  E  E  E    E  E  E  E  E  E
|-------------------|--------------------||
|-------------------|-------------------o||
|-------------------|--------------------||
|-------------------|--------------------||
|-------3--------3--|-------2--------2--o||
|-0--2-----0--2-----|-0--2-----0--2------||

    E. E. E. E. E. E.   E. E. E. E. E. S.S.
||--------------------|---------------------|
||o-------------------|---------------------|
||--------------------|---------------------|
||--------------------|---------------------|
||o-------5--------5--|-------5--------5/7--|
||--0--3-----0--3-----|-0--3-----0--3-------|

  E  E  E  E  E  E    E  E  E  E  E  E
|-------------------|--------------------||
|-------------------|-------------------o||
|-------------------|--------------------||
|-------------------|--------------------||
|-------3--------3--|-------2--------2--o||
|-0--2-----0--2-----|-0--2-----0--2------||

  PM--------------|
  S S S S S S S S E.  E. E   S E E. E H
|--------------------------|----------0----|
|-----------------------|----------0----|
|-----------------------|----------0----|
|-----------------------|---------------|
|--------------------------|---------------|
|-2-2-2-2-2-2-2-2-2------0-|-2-2-0--1------|

 Verse 2
  PM--------------------------------------------------------------|
  S S S S S S S S S S S S S S S S   S S S S S S S S S S S S S S S S
|---------------------------------|---------------------------------|
|---------------------------------|---------------------------------|
|---------------------------------|---------------------------------|
|---------------------------------|---------------------------------|
|-5-5-5-5-5-5-5-5-5-5-5-5---5-5-5-|-5-5-5-5-5-5-5-5-5-5-5-5---5-5-5-|
|-0-0-0-0-0-0-0-0-0-0-0-0---0-0-0-|-0-0-0-0-0-0-0-0-0-0-0-0---0-0-0-|

  PM--------------------------------------------------------------|
  S S S S S S S S S S S S S S S S   S S S S S S S S S S S S S S S S
|---------------------------------|---------------------------------|
|---------------------------------|---------------------------------|
|---------------------------------|---------------------------------|
|---------------------------------|---------------------------------|
|-5-5-5-5-5-5-5-5-5-5-5-5---5-5-5-|-5-5-5-5-5-5-5-5-5-5-5-5---5-5-5-|
|-0-0-0-0-0-0-0-0-0-0-0-0---0-0-0-|-0-0-0-0-0-0-0-0-0-0-0-0---0-0-0-|

  PM--------------------------------------------------------------|
  S S S S S S S S S S S S S S S S   S S S S S S S S S S S S S S S S
|---------------------------------|---------------------------------|
|---------------------------------|---------------------------------|
|---------------------------------|---------------------------------|
|---------------------------------|---------------------------------|
|-8-8-8-8-8-8-8-8-8-8-8-8---8-8-8-|-8-8-8-8-8-8-8-8-8-8-8-8---8-8-8-|
|-0-0-0-0-0-0-0-0-0-0-0-0---0-0-0-|-0-0-0-0-0-0-0-0-0-0-0-0---0-0-0-|

   PM---------------------------------------------
   S  S  S  S  S  S  S  S  S  S  S  S S  S  S  S
|------------------------------------------------|
|------------------------------------------------|
|------------------------------------------------|
|------------------------------------------------|
|-10-10-10-10-10-10-10-10-10-10-10-10---10-10-10-|
|--0--0--0--0--0--0--0--0--0--0--0--0----0--0--0-|

 -------------------------------|
  S S S S S S S S S S S S S S S S
|---------------------------------|
|---------------------------------|
|---------------------------------|
|---------------------------------|
|-7-7-7-7-7-7-7-7-7-7-7-7---5-5-5-|
|-0-0-0-0-0-0-0-0-0-0-0-0---0-0-0-|

    PM--------------------------------------------------------------|
    S S S S S S S S S S S S S S S S   S S S S S S S S S S S S S S S S
||----------------------------------|----------------------------------|
||o---------------------------------|----------------------------------|
||----------------------------------|----------------------------------|
||----------------------------------|----------------------------------|
||o-8-8-8-8-8-8-8-8-8-8-8-8---8-8-8-|-8-8-8-8-8-8-8-8-8-8-8-8---8-8-8--|
||--0-0-0-0-0-0-0-0-0-0-0-0---0-0-0-|-0-0-0-0-0-0-0-0-0-0-0-0---0-0-0--|

   PM---------------------------------------------
   S  S  S  S  S  S  S  S  S  S  S  S S  S  S  S
|------------------------------------------------|
|------------------------------------------------|
|------------------------------------------------|
|------------------------------------------------|
|-10-10-10-10-10-10-10-10-10-10-10-10---10-10-10-|
|--0--0--0--0--0--0--0--0--0--0--0--0----0--0--0-|

  1.
 -------------------------------|
  S S S S S S S S S S S S S S S S
|----------------------------------||
|---------------------------------o||
|----------------------------------||
|----------------------------------||
|-7-7-7-7-7-7-7-7-7-7-7-7---5-5-5-o||
|-0-0-0-0-0-0-0-0-0-0-0-0---0-0-0--||

  2.
 17/16
  PM--------------------|
  S S S S S S S S S S S S S +Q
|--------------------------------|
|--------------------------------|
|--------------------------------|
|--------------------------------|
|-2-2-2-2---2-2-2-2-0-0-0-3-(3)--|
|-0-0-0-0---0-0-0-0-0-0-0-0-(0)--|

Chorus

   Bridge
   9/8
    T. T. T. T. T. T. T. T. T. T. T. T. T. T. T. T. T. T. T. T. T. T. T. T.
||--------------------------------------------------------------------------|
||o-------------------------------------------------------------------------|
||--------------------------------------------------------------------------|
||--------------------------------------------------------------------------|
||o-0--0--0--0--0--0--0--0--0--0--0--0--5--5--5--5--5--5--5--5--5--5--5--5--|
||--0--0--0--0--0--0--0--0--0--0--0--0--0--0--0--0--0--0--0--0--0--0--0--0--|

  T. T. T. T. T. T. T. T. T. T. T. T. T. T. T. T. T. T. T. T. T. T. T. T.
|-------------------------------------------------------------------------|
|-------------------------------------------------------------------------|
|-------------------------------------------------------------------------|
|-------------------------------------------------------------------------|
|-7--7--7--7--7--7--7--7--7--7--7--7--8--8--8--8--8--8--8--8--8--8--8--8--|
|-0--0--0--0--0--0--0--0--0--0--0--0--0--0--0--0--0--0--0--0--0--0--0--0--|

  T. T. T. T. T. T. T. T. T. T. T. T. T. T. T. T. T. T. T. T. T. T. T. T.
|-------------------------------------------------------------------------|
|-------------------------------------------------------------------------|
|-------------------------------------------------------------------------|
|-------------------------------------------------------------------------|
|-3--3--3--3--3--3--3--3--3--3--3--3--3--3--3--3--5--5--5--5--3--3--3--3--|
|-3--3--3--3--3--3--3--3--3--3--3--3--3--3--3--3--5--5--5--5--3--3--3--3--|

  T. T. T. T. T. T. T. T. T. T. T. T. T. T. T. T. T. T. T. T. T. T. T. T.  4x
|--------------------------------------------------------------------------||
|-------------------------------------------------------------------------o||
|--------------------------------------------------------------------------||
|--------------------------------------------------------------------------||
|-2--2--2--2--2--2--2--2--2--2--2--2--2--2--2--2--2--2--2--2--3--3--3--3--o||
|-2--2--2--2--2--2--2--2--2--2--2--2--2--2--2--2--2--2--2--2--3--3--3--3---||

 Interlude
  W        +E    +Q.   +E. E. E. E.   W        +E    W        +E
|--------------|--------------------|--------------|--------------|
|--------------|--------------------|--------------|--------------|
|--------------|--------------------|--------------|--------------|
|--------------|--------------------|--------------|--------------|
|--------------|--------------------|--------------|--------------|
|-3--------(3)-|-(3)---(3)-3--5--3--|-2--------(2)-|-0--------(0)-|

  Q.   +E. Q.   +E.   Q.   +E. E. E. E.   H.      +E. E.   Q.   +E. Q.   +E.
|-------------------|-------------------|----------------|--------------------|
|-------------------|-------------------|----------------|--------------------|
|-------------------|-------------------|----------------|--------------------|
|-------------------|-------------------|----------------|--------------------|
|-------------------|-------------------|----------------|--------------------|
|-3----(3)-2----(2)-|-0----(0)-3--5--3--|-2-------(2)-2--|-3----(3)-5----(5)--|

  W        +E    +Q.   +E. E. E. E.   H.       +E. E.   H.       E. E.
|--------------|--------------------|-----------------|----------------|
|--------------|--------------------|-----------------|----------------|
|--------------|--------------------|-----------------|----------------|
|--------------|--------------------|-----------------|----------------|
|--------------|--------------------|-----------------|----------------|
|-3--------(3)-|-(3)---(3)-3--5--3--|-2--------(2)-3--|-0--------2--0--|

   Q.   +E. Q.   +E.   Q.   +E. E. E. E.
|--------------------|-------------------|
|--------------------|-------------------|
|--------------------|-------------------|
|--------------------|-------------------|
|--------------------|-------------------|
|-/3----(3)-2----(2)-|-0----(0)-3--5--3--|

  Q.   +E. Q.   +E.   Q.   +E.  Q.    +E.
|-------------------|-----------------------|
|-------------------|-------------()--|
|-------------------|-------------()--|
|-------------------|-------------()--|
|-------------------|-----------------------|
|-2----(2)-2----(2)-|-3----(3)--------------|

   Outro
    PM--------------|
    S S S S S S S S E.  E. E   S E E. E E. E. E
||---------------------------|------------------|
||o-----------------------|------------------|
||------------------------|------------------|
||------------------------|----------0-------|
||o--------------------------|----------4-------|
||--2-2-2-2-2-2-2-2-2------0-|-2-2-0--1----0--1-|

                             1.
  PM--------------|
  S S S S S S S S E.  E. E   S E E. E E. E. E
|--------------------------|--------------------||
|-----------------------|-------------------o||
|-----------------------|--------------------||
|-----------------------|----------0---------||
|--------------------------|----------4--------o||
|-2-2-2-2-2-2-2-2-2------0-|-2-2-0--1----0--1---||

            \1
  S E E. E  H
|-----------------|
|--------------|
|--------------|
|--------------|
|-----------------|
|-2-2-0--1--------|

    PM------------|    PM-|      PM-|
    S S S S S S S S E. E. E   E. E. E E. E. E
||--------------------------|-----------------|
||o-------------------------|-----------------|
||--------------------------|-----------------|
||------------------0-------|-5-------5--4--3-|
||o-----------------0--0--1-|-3--0--1-3--2--1-|
||--0-0-0-0-0-0-0-0-0--0--1-|-3--0--1-3--2--1-|

                            1.,2.,3.
  PM------------|    PM-|      PM-|
  S S S S S S S S E. E. E   E. E. E E. E. E   4x
|-------------------------|-------------------||
|-------------------------|------------------o||
|-------------------------|-------------------||
|-----------------0-------|-5-------5--4--3---||
|-----------------0--0--1-|-3--0--1-3--2--1--o||
|-0-0-0-0-0-0-0-0-0--0--1-|-3--0--1-3--2--1---||

     PM-|
  E  E  E E  E  E
|-----------------*|
|-----------------*|
|-----------------*|
|-5---------------*|
|-3--0--1---------*|
|-3--0--1-3--2--1-*|

Duration Legend

W - whole; H - half; Q - quarter; E - 8th; S - 16th; T - 32nd; X - 64th; a - acciaccatura
+ - note tied to previous; . - note dotted; .. - note double dotted
Uncapitalized letters represent notes that are staccato (1/2 duration)
Irregular groupings are notated above the duration line
Duration letters will always appear directly above the note/fret number it represents the
duration for.  Duration letters with no fret number below them represent rests.  Multi-
bar rests are notated in the form Wxn, where n is the number of bars to rest for.  Low
melody durations appear below the staff

 h   - hammer-on
 p   - pull-off
 b   - bend
 pb  - pre-bend
 r   - bend release (if no number after the r, then release immediately)
 /\  - slide into or out of (from/to "nowhere")
 s   - legato slide
 S   - shift slide


   - natural harmonic
[n]  - artificial harmonic
n(n) - tapped harmonic
 ~   - vibrato
 tr  - trill
 T   - tap
 TP  - trem. picking
 PM  - palm muting
\n/  - tremolo bar dip; n = amount to dip
 \n  - tremolo bar down
 n/  - tremolo bar up
/n\  - tremolo bar inverted dip
 =   - hold bend; also acts as connecting device for hammers/pulls
 <>  - volume swell (louder/softer)
 x   - on rhythm slash represents muted slash
 o   - on rhythm slash represents single note slash

Misc Legend

 |  - bar
||  - double bar
||o - repeat start
o|| - repeat end
*|  - double bar (ending)
 :  - bar (freetime)
 $  - Segno
 &  - Coda
Tempo markers -
 
   = BPM(8/16=s8/s16), where s8 = swing 8ths, s16 = swing 16ths