Guns N' Roses - You Could Be Mine Text Bass Tab

Learn the song with the online tablature player
G|--------------|----------------|----------------|----------------|----------------|
D|---2-4-2------|*---------------|----------------|----------------|---------------*|
A|-/4-----4-2-0-|*---------------|----------------|----------------|---------------*|
E|--------------|-22-0-2--22-0-2-|-22-0-2--22-0-2-|-22-0-0--22-0-0-|-22-0-0--22-0-0-|
                  Repeat x6

G|-----------------|-----------------|---------------|-----------|
D|-----------------|-2-2-2-2-2-2-2-2-|-2-2-2-2-2-2-2-|-----------|
A|-----------------|-----------------|---------------|-02020-----|
E|-0-0-0-0-0-0-0-0-|-----------------|---------------|-------2-0-|

G|-------------------|-------------------|--------------------|------------------|
D|-------------------|-------------------|-----456-----------|------------------|
A|----------02020----|-----------0202----|-----------0202-----|----------0202----|
E|-2-2-02-2------2-0-|-2-2-02-2------2-0-|-0--------------2-0-|-2-2-02-2-----2-0-|

Verse 1
G|-----------------|-----------------|-----------------|-----------------|
D|-----------------|-----------------|-----------------|-----4---4-4-2---|
A|-----------------|-----------------|-----------------|-----------------|
E|-2-2-2-2-2-2-2-2-|-2-2-2-2-2-2-0-1-|-2-2-2-2-2-2-2-2-|-2-2---2---------|

G|-----------------|----------------|---------------|---------------|
D|---------------2-|---------2--2---|---------------|---------------|
A|-----------------|----------------|---------------|-0-2-0-2-0-----|
E|-0-0-0-0-0-0-0---|-0-0-0-0---0--0-|-2-2-2-2-2-2-2-|-----------2-0-|

G|-----------------|-----------------|-----------------|-----------------|
D|-----------------|-----------------|-----------------|-----4-------4---|
A|-----------------|-----------------|-----------------|-----------------|
E|-2-2-2-2-2-2-2-2-|-2-2-2-2-2-2-0-1-|-2-2-2-2-2-2-2-2-|-2-2---2-2-2---2-|

G|-----------------|----------------|---------------|---------------|
D|---------------2-|---------2--2---|---------------|---------------|
A|-----------------|----------------|---------------|-0-2-0-2-0-----|
E|-0-0-0-0-0-0-0---|-0-0-0-0---0--0-|-2-2-2-2-2-2-2-|-----------2-0-|

Chorus 1
G|-----|---------|---------------|---------------|
D|-----|---------|---------------|---------------|
A|-----|---------|---------------|---------------|
E|-5---|-2h4-----|-2-2-2—2-2-2-2-|-2-2-2-2-2-2-2-|

G|-----|---------|---------------|-----------------|
D|-----|---------|---------------|-2h4—4-4-4-4-----|
A|-----|-2-------|---------------|-------------4-2-|
E|-5---|---------|-2-2-2—2-2-2-2-|-----------------|

G|-----|---------|---------------|---------------|
D|-----|---------|---------------|---------------|
A|-----|-2-------|---------------|---------------|
E|-5---|---------|-2-2-2—2-2-2-2-|-2-2-2-2-2-2-2-|

G|-----------------|-----------------|------------------|--------------|
D|-----------------|-----------------|-2h4-2------------|--------------|
A|-----------------|-2-2-2-2-2-2-2-2-|-------4-3-2------|-0-2-0-2-0----|
E|-5-5-5-5-5-5-5-5-|-----------------|------------5-2-0-|-----------02-|

G|-------------------|-------------------|--------------------|------------------|
D|-------------------|-------------------|-----456-----------|------------------|
A|----------02020----|-----------0202----|-----------0202-----|----------0202----|
E|-2-2-02-2------2-0-|-2-2-02-2------2-0-|-0--------------2-0-|-2-2-02-2-----2-0-|

Verse 2
G|-----------------|-----------------|-----------------|-----------------|
D|-----------------|-----------------|-----------------|-----4-4-3-3-2-2-|
A|-----------------|-----------------|-----------------|-----------------|
E|-2-2-2-2-2-2-2-2-|-2-2-2-2-2-2-0-1-|-2-2-2-2-2-2-2-2-|-2-2-------------|

G|-----------------|-----------------|---------------|---------------|
D|-----------------|-----------------|---------------|---------------|
A|-----------------|-----------------|---------------|-0-2-0-2-0-----|
E|-0-0-0-0-0-0-0-0-|-0-0-0-0-0-0-0-0-|-2-2-2-2-2-2-2-|-----------2-0-|

G|-----------------|-----------------|-----------------|-----------------|
D|-----------------|-----------------|-----------------|-----------------|
A|-----------------|-----------------|-----------------|-----------------|
E|-2-2-2-2-2-2-2-2-|-2-2-2-2-2-2-0-1-|-2-2-2-2-2-2-2-2-|-2-2-2-2-2-2-2-2-|

G|-----------------|----------------|---------------|---------------|
D|---------------2-|---------2--2---|---------------|---------------|
A|-----------------|----------------|---------------|-0-2-0-2-0-----|
E|-0-0-0-0-0-0-0---|-0-0-0-0---0--0-|-2-2-2-2-2-2-2-|-----------2-0-|

Chorus 2
G|-----|---------|---------------|---------------|
D|-----|---------|---------------|---------------|
A|-----|---------|---------------|---------------|
E|-5---|-2h4-----|-2-2-2—2-2-2-2-|-2-2-2-2-2-2-2-|

G|-----|---------|---------------|-----------------|
D|-----|---------|---------------|-2h4—4-4-4-4-----|
A|-----|-2-------|---------------|-------------4-2-|
E|-5---|---------|-2-2-2—2-2-2-2-|-----------------|

G|-----|---------|---------------|---------------|
D|-----|---------|---------------|---------------|
A|-----|-2-------|---------------|---------------|
E|-5---|---------|-2-2-2—2-2-2-2-|-2-2-2-2-2-2-2-|

G|-----------------|-----------------|-----------------|--------|
D|-----------------|-----------------|-----------------|--------|
A|-----------------|-2-2-2-2-2-2-2-2-|-4-4-4-4-4-4-4-4-|--------|
E|-5-5-5-5-5-5-5-5-|-----------------|-----------------|--------|

G|----------------|----------------|----------------|----------------|
D|*---------------|----------------|----------------|---------------*|
A|*---------------|----------------|----------------|---------------*|
E|-22-0-2--22-0-2-|-22-0-2--22-0-2-|-22-0-0--22-0-0-|-22-0-0--22-0-0-|
Repeat x3

G|---------------|---------------|----------------|----------------|
D|---------------|---------------|----------------|---------2-2-2--|
A|---------------|---------------|----------------|----------------|
E|-2-0-2--22-0-2-|-2-0-2--22-0-2-|----0-0-----0-0-|----0-0-------0-|

Bridge

G|-----------------|-----------------|------------------|-----------------|
D|-----------------|-----------------|------------------|-----------------|
A|-----------------|-----------------|-----------55-----|-----------------| X2
E|-3---3-3-3-3-3-3-|-2---2-2-3---3-3-|-5---5-5-5----55--|-5-5-5-5-5-5-5-5-|

G|-----------------|-----------------|-----------------|
D|-----------------|-----------------|-----------------|
A|-----------------|-----------------|-2---2-2-2-2-2-2-|
E|-3---3-3-3-3-3-3-|-2---2-2-3---3-3-|-----------------|

G|-----------------|------------------|---------------------|---------------------|
D|-----------------|-----5------------|---------------------|---------------------|
A|-----------------|---5--------------|-2--02-022-02-02-555-|-2--02-022-02-02-555-|
E|-5---5-5-5-5-5-5-|-3--------2-2-2-2-|---------------------|---------------------|
G|--------------------|----------4-4444-|---------------------|---------------------|
D|--------------------|-----------------|---------------------|---------------------|
A|----------------555-|-2-02-02---------|-2--02-022-02-02-555-|-2--02-022-02-02-555-|
E|-5--35-35-5—35------|-----------------|---------------------|---------------------|

G|------------------|---------------4—4-4-|
D|------5-7—-5------|---------------------|
A|----7-------7-5---|-2--02-022-0-2--2-2--|
E|-5--------------7-|---------------------|

G|-----------------|-----------------|-----------------|-------------------|
D|-----------------|-----------------|-----------------|-------------------|
A|-2---2-2-2-2-2-2-|-4---4-4-4-4-4-4-|-5---5-5-5-5-5-5-|-5-5-5-5-5-5-5-4p2-| X2
E|-----------------|-----------------|-----------------|-------------------|

G|-----------------|-----------------|-----------------|-------------------|
D|-----------------|-----------------|-----------------|-------------------|
A|-2-0-2-0-2-0-2-0-|-4-2-4-2-4-2-4-2-|-5-4-5-4-5-4-5-4-|-5-4-5-4-5-4-5-4p2-|
E|-----------------|-----------------|-----------------|-------------------|

G|-----------------|-----------------|----------7-7-7-7-|-7-7-7-7-7-7-7-7-7-|
D|-----------------|-----------------|------------------|-------------------|
A|-2-0-2-0-2-0-2-0-|-4-2-4-2-4-2-4-2-|-5-4-5-4/---------|-------------------|
E|-----------------|-----------------|------------------|-------------------|

Final Chorus
G|-----|---------|---------------|---------------|
D|-----|---------|---------------|---------------|
A|-----|---------|---------------|---------------|
E|-5---|-2h4-----|-2-2-2—2-2-2-2-|-2-2-2-2-2-2-2-|

G|-----|---------|---------------|-----------------|
D|-----|---------|---------------|-2h4—4-4-4-4-----|
A|-----|-2-------|---------------|-------------4-2-|
E|-5---|---------|-2-2-2—2-2-2-2-|-----------------|

G|-----|---------|---------------|---------------|
D|-----|---------|---------------|---------------|
A|-----|-2-------|---------------|---------------|
E|-5---|---------|-2-2-2—2-2-2-2-|-2-2-2-2-2-2-2-|

G|-----------------|-----------------|-----------------|-----------------|
D|-----------------|-----------------|-----------------|-----------------|
A|-----------------|-2-2-2-2-2-2-2-2-|-----------------|-2-2-2-2-2-2-2-2-|
E|-5-5-5-5-5-5-5-5-|-----------------|-5-5-5-5-5-5-5-5-|-----------------|

G|-----------------|-----------|
D|-----------------|-----------|
A|-----------------|-02020-----|
E|-5-5-5-5-5-5-5-5-|-------2-0-|

G|-------------------|--------------------|
D|-------------------|--------------------|
A|----------02020----|-----------02020----|
E|-2-2-02-2------2-0-|-2-2-02-2-------2-0-|

G|-------------------|-----------------------|
D|-------------------|--------2h44-2h44-2h44-|
A|----------02020----|-----------------------|
E|-2-2-02-2------2-0-|-2-2-02----------------|

G|-------------------|--------------------|
D|-------------------|--------------------|
A|----------02020----|-----------02020----|
E|-2-2-02-2------2-0-|-2-2-02-2-------2-0-|

G|-------------------|---------------------|
D|-------------------|---------------------|
A|----------02020----|-----------02020-----|
E|-2-2-02-2------2-0-|-2-2-02-2-------2-02-|