Helmet - Unsung Text Bass Tab

Learn the song with the online tablature player
       INTRO
|-----------------|       |-----|
|-----------------|       |-----|
|-----------------| 16x's |-----|
|-2-2-2-3-3-3-5-5-|       |--0--|

       MAIN RIFF
|---------------------------------------------------|
|---------------------------------------------------|
|---------------------------------------------------|
|-2-2-2--2-0-2--2-2-2--2-0-2--2-0-2-2-2-2-3-3-3-5-5-|

       1st CHORUS
|-----------------------------------------------------------------------
|-----------------------------------------------------------------------
|-----------------------------------------------------------------------
|-0-0-0-0-0-0-0-0-0-0-0-0-0-0-0-0-2-2-2-2-2-2-2-2-2-2-2-2-2-2-2-2-10-10-

-----------------------------------------------------------|
-----------------------------------------------------------|
-----------------------------------------------------------| 2x's
-10-10-10-10-10-10-10-10-10-10-10-10-10-10-7-7-7-7-7-7-7-7-|

 RIFF BEFORE 2nd VERSE
|-------------------|
|-------------------|
|-------------------|
|-0--2-0-2-0--2-2-2-|

       2nd CHORUS
|-----------------------------------------------------------------------
|-----------------------------------------------------------------------
|-----------------------------------------------------------------------
|-0-0-0-0-0-0-0-0-0-0-0-0-0-0-0-0-2-2-2-2-2-2-2-2-2-2-2-2-2-2-2-2-10-10-

-10-10-10-10-10-10-10-10-10-10-10-10-10-10-9-9-9-9-9-9-9-0-0-0-0-0-0-0-0

-0-0-0-0-0-0-0-0-2-2-2-2-2-2-2-2-2-2-2-2-2-2-2-2-3-3-3-3-3-3-3-3-3-3-3-3

------------------------------|
------------------------------|
------------------------------|
-3-3-3-3-12-12-12-12-12-12-12-|

|-------------------------------------------------------|
|-------------------------------------------------------|
|-------------------------------------------------------| 2x's
|-0-2-2-0-2-3-5-7-7-7-7-7-7-7-7-7-7H5-7-7-7-7-7-7-7-7-7-|

|-------------|      |---------------|   |-------------|
|-------------|      |---------------|   |-------------|
|-------------| 8x's |---------------|   |-------------| 7x's
|-0-2-2-0-2-3-|      |-0-2-2-0-2-3-3-|   |-0-2-2-0-2-3-|

|---------|  |---------------------------------------------------------|
|---------|  |---------------------------------------------------------|
|---------|  |---------------------------------------------------------|
|-0-----2-|  |-3-3-3-3-3-3-3-3-3-3-3-3-3-3-0-0-0-0-0-0-0-0-0-0-0-0-0-0-|

|-----------------------------------------------------------------------
|-----------------------------------------------------------------------
|-----------------------------------------------------------------------
|-7-7-7-7-7-7-7-7-7-7-7-7-7-7-5-5-5-5-5-5-5-5-5-5-5-5-5-5-3-3-3-3-3-3-3-

-3-3-3-3-3-3-3-0-0-0-0-0-0-0-0-0-0-0-0-0-0-7-7-7-7-7-7-7-7-7-7-7-7-7-7-5

-------------------------------------------------------------------|
-------------------------------------------------------------------|
-------------------------------------------------------------------|
-5-5-5-5-5-5-5-5-5-5-5-5-5-3-3-3-3-3-3-3-3-3-3-3-3-3-3-2-2-2-0-2-0-|