Hollywood Undead - Undead Text Guitar Tab

Learn song with the online tabulature player
Tuning: Drop D

This is played through like .. the whole song :]


E|-------------------------------------|
B|-------------------------------------|
G|-------------------------------------|
D|--0-0-7-0-8-0-7-0--------------------|
A|------------------10-8-7-8-10-8-7----|
D|----------------------------------10-|

E|-------------------------------------|
B|-------------------------------------|
G|-------------------------------------|
D|--0~--0------------------------------|
A|--0~--0------------------------------|
D|--0~--0------------------------------|