Hoobastank - Crawling In The Dark (Acoustic) Text Guitar Tab

Learn the song with the online tablature player
  INTRO with phaser?(I think)and delay

--|------------------------------------|
--|------------------------------------|
--|------------------------------------|
--|-------11---12---11---9------------9|
--|-9-9-9----9----9----9---9-12-7-7-7--|
--|------------------------------------|

--|------------------------------------|
--|------------------------------------|
--|------------------------------------|
--|-------11---12---11---9------------9|
--|-9-9-9----9----9----9---9-12-7-7-7--|
--|------------------------------------|

--|------------------------------------|
--|------------------------------------|
--|------------------------------------|
--|-------11---12---11---9------------9|
--|-9-9-9----9----9----9---9-12-7-7-7--|
--|------------------------------------|

--|--------------------------------|
--|--------------------------------|
--|--------------------------------|
--|-------7---6---9---7---6--------|
--|-5-5-5---5---5---5---5---5-7-7-7|
--|--------------------------------|

-|-------------------------------|
-|-------------------------------|
-|-------------------------------|
-|---4-4---4-7-7-7--7-7-2-2-2-2-2|
-|---4-4---4-5-5-4--7-7-2-2-2-2-2|
-|-0h2-2-0-2--------5-5-0-0-0-0-0|

-|-------------------------------|
-|-------------------------------|
-|-------------------------------|
-|---4-4---4-7-7-7--7-7-2-2-2-2-2|
-|---4-4---4-5-5-4--7-7-2-2-2-2-2|
-|-0h2-2-0-2--------5-5-0-0-0-0-0|

-|-------------------------------|
-|-------------------------------|
-|-------------------------------|
-|---4-4---4-7-7-7--7-7-2-2-2-2-2|
-|---4-4---4-5-5-4--7-7-2-2-2-2-2|
-|-0h2-2-0-2--------5-5-0-0-0-0-0|

-|--------------------------------|
-|--------------------------------|
-|-7-7-7-7-7-7-7-7----------------|
-|-7-7-7-7-7-7-7-7-7-7-7-7-2-2-2-2|
-|-5-5-5-5-5-5-5-5-7-7-7-7-2-2-2-2|
-|-----------------5-5-5-5-0-0-0-0|

 VERSE

  I will dedicate...
--|------------------------------------|
--|------------------------------------|
--|------------------------------------|
--|-------11---12---11---9------------9|
--|-9-9-9----9----9----9---9-12-7-7-7--|
--|------------------------------------|

--|------------------------------------|
--|------------------------------------|
--|------------------------------------|
--|-------11---12---11---9------------9|
--|-9-9-9----9----9----9---9-12-7-7-7--|
--|------------------------------------|

  ...thing for just a second's worth...
--|--------------------------------|
--|--------------------------------|
--|--------------------------------|
--|-------7---6---9---7---6--------|
--|-5-5-5---5---5---5---5---5-7-7-7|
--|--------------------------------|

--|--------------------------------|
--|--------------------------------|
--|--------------------------------|
--|-------7---6---9---7---6--------|Play verse Twice
--|-5-5-5---5---5---5---5---5-7-7-7|
--|--------------------------------|

  CHORUS

 show me what it's for..
-|-------------------------------|
-|-------------------------------|
-|-------------------------------|
-|---4-4---4-7-7-7--7-7-2-2-2-2-2|
-|---4-4---4-5-5-4--7-7-2-2-2-2-2|
-|-0h2-2-0-2--------5-5-0-0-0-0-0|

 make me understand it...
-|-------------------------------|
-|-------------------------------|
-|-------------------------------|
-|---4-4---4-7-7-7--7-7-2-2-2-2-2|
-|---4-4---4-5-5-4--7-7-2-2-2-2-2|
-|-0h2-2-0-2--------5-5-0-0-0-0-0|

 I've been crawling...
-|---------------------------|
-|---------------------------|
-|---------------------------|
-|-7-7-7--7-7-7--9-9-9--9-9-9|
-|-5-5-5--5-5-5--7-7-7--7-7-7|
-|-5-5-5--5-5-5--7-7-7--7-7-7|

 looking for...
-|---------------------------|
-|---------------------------|
-|---------------------------|
-|-7-7-7--7-7-7--9-9-9--9-9-9|Play chorus Twice
-|-5-5-5--5-5-5--7-7-7--7-7-7|
-|-5-5-5--5-5-5--7-7-7--7-7-7|

 Now VERSE again

 Now Chorus again

 INTERLUDE
-|---------------------------|
-|---------------------------|
-|---------------------------|
-|---4----4----4----4----4--5|
-|-2-4--2-4--2-4--2-4--2-4--5|
-|-0-2--0-2--0-2--0-2--0-2--3|

                      so when it comes...will I know
-|---------------------------|
-|---------------------------|
-|---------------------------|
-|---4----4----4----4----4--5|
-|-2-4--2-4--2-4--2-4--2-4--5|
-|-0-2--0-2--0-2--0-2--0-2--3|

 with flange again:

 palm mute all the f#'s (2nd fret)

-|--------------------------------|
-|--------------------------------|
-|--------------------------------|
-|--------------------------------|
-|-----4-4-4-4-----4-4-4-4-----4-4|
-|-0h2-2-2-2-2-0h2-2-2-2-2-0h2-2-2|

-|-----------------------------|
-|-----------------------------|
-|-----------------------------|
-|---------------------5------5|
-|-----4-4-4-4-----4-4-5--5-5-5|
-|-0h2-2-2-2-2-0h2-2-2-3--3-3-3|

-|--------------------------------|
-|--------------------------------|
-|--------------------------------|
-|--------------------------------|
-|-----4-4-4-4-----4-4-4-4-----4-4|
-|-0h2-2-2-2-2-0h2-2-2-2-2-0h2-2-2|

-|-----------------------------|
-|-----------------------------|
-|-----------------------------|
-|---------------------5------5|
-|-----4-4-4-4-----4-4-5--5-5-5|
-|-0h2-2-2-2-2-0h2-2-2-3--3-3-3|

 how much further do I...
-|--------------------------------|
-|--------------------------------|
-|-7-7-7-7-7-7-7-7-7-7-7-7-7-7-7-7|
-|-7-7-7-7-7-7-7-7-7-7-7-7-7-7-7-7|
-|-5-5-5-5-5-5-5-5-5-5-5-5-5-5-5-5|
-|--------------------------------|

 have to go...
-|--------------|
-|--------------|
-|--------------|
-|-2-2-2-2-2-2-4|
-|-2-2-2-2-2-2-4|
-|-0-0-0-0-0-0-2|

 how much longer...
-|--------------------------------|
-|--------------------------------|
-|-7-7-7-7-7-7-7-7-7-7-7-7-7-7-7-7|
-|-7-7-7-7-7-7-7-7-7-7-7-7-7-7-7-7|
-|-5-5-5-5-5-5-5-5-5-5-5-5-5-5-5-5|
-|--------------------------------|

 finally know...
-|---------------|
-|---------------|
-|---------------|
-|--7-7-7-7-7-7-7|
-|--7-7-7-7-7-7-7|
-|--4-4-4-4-4-4-5|

 cuz I'm looking...
-|--------------------------------|
-|--------------------------------|
-|-7-7-7-7-7-7-7-7-7-7-7-7-7-7-7-7|
-|-7-7-7-7-7-7-7-7-7-7-7-7-7-7-7-7|
-|-5-5-5-5-5-5-5-5-5-5-5-5-5-5-5-5|
-|--------------------------------|

 just can't see...
-|--------------|
-|--------------|
-|--------------|
-|-2-2-2-2-2-2-4|
-|-2-2-2-2-2-2-4|
-|-0-0-0-0-0-0-2|

  front of me...
-|--------------------------------|
-|--------------------------------|
-|-7-7-7-7-7-7-7-7-7-7-7-7-7-7-7-7|
-|-7-7-7-7-7-7-7-7-7-7-7-7-7-7-7-7|
-|-5-5-5-5-5-5-5-5-5-5-5-5-5-5-5-5|
-|--------------------------------|

 palm mute all these notes except last 3:

 in front of ME!!!
-|-------------------------------|
-|-------------------------------|
-|-------------------------------|
-|-2-2-2-2-2-2-2-2-2-2-2-2--2-2-2|
-|-2-2-2-2-2-2-2-2-2-2-2-2--2-2-2|
-|-0-0-0-0-0-0-0-0-0-0-0-0--0-0-0|

  show me what it's for...
--|------------------------------------|
--|------------------------------------|
--|------------------------------------|
--|-------11---12---11---9------------9|
--|-9-9-9----9----9----9---9-12-7-7-7--|
--|------------------------------------|

  make me understand it...
--|------------------------------------|
--|------------------------------------|
--|------------------------------------|
--|-------11---12---11---9------------9|
--|-9-9-9----9----9----9---9-12-7-7-7--|
--|------------------------------------|

 I've been crawling ...
-|---------------------------|
-|---------------------------|
-|---------------------------|
-|-7-7-7--7-7-7--9-9-9--9-9-9|
-|-5-5-5--5-5-5--7-7-7--7-7-7|
-|-5-5-5--5-5-5--7-7-7--7-7-7|

 looking for the answer...
-|---------------------------|
-|---------------------------|
-|---------------------------|
-|-7-7-7--7-7-7--9-9-9--9-9-9|
-|-5-5-5--5-5-5--7-7-7--7-7-7|
-|-5-5-5--5-5-5--7-7-7--7-7-7|

 is there something more...
-|-------------------------------|
-|-------------------------------|
-|-------------------------------|
-|---4-4---4-7-7-7--7-7-2-2-2-2-2|
-|---4-4---4-5-5-4--7-7-2-2-2-2-2|
-|-0h2-2-0-2--------5-5-0-0-0-0-0|

 than what I've been handed...
-|-------------------------------|
-|-------------------------------|
-|-------------------------------|
-|---4-4---4-7-7-7--7-7-2-2-2-2-2|
-|---4-4---4-5-5-4--7-7-2-2-2-2-2|
-|-0h2-2-0-2--------5-5-0-0-0-0-0|

 I've been...
-|---------------------------|
-|---------------------------|
-|---------------------------|
-|-7-7-7--7-7-7--9-9-9--9-9-9|
-|-5-5-5--5-5-5--7-7-7--7-7-7|
-|-5-5-5--5-5-5--7-7-7--7-7-7|

 looking for....
-|---------------------------|
-|---------------------------|
-|---------------------------|
-|-7-7-7--7-7-7--9-9-9--9-9-9|
-|-5-5-5--5-5-5--7-7-7--7-7-7|
-|-5-5-5--5-5-5--7-7-7--7-7-7|

-|-------------------------------|
-|-------------------------------|
-|-------------------------------|
-|---4-4---4-7-7-7--7-7-2-2-2-2-2|
-|---4-4---4-5-5-4--7-7-2-2-2-2-2|
-|-0h2-2-0-2--------5-5-0-0-0-0-0|

-|-------------------------------|
-|-------------------------------|
-|-------------------------------|
-|---4-4---4-7-7-7--7-7-2-2-2-2-2|
-|---4-4---4-5-5-4--7-7-2-2-2-2-2|
-|-0h2-2-0-2--------5-5-0-0-0-0-0|

-|-------------------------------|
-|-------------------------------|
-|-------------------------------|
-|---4-4---4-7-7-7--7-7-2-2-2-2-2|
-|---4-4---4-5-5-4--7-7-2-2-2-2-2|
-|-0h2-2-0-2--------5-5-0-0-0-0-0|

-|-----------------------|
-|-----------------------|
-|-----------------------|
-|---4-4---4-7-7-7--7-7-2|
-|---4-4---4-5-5-4--7-7-2|
-|-0h2-2-0-2--------5-5-0|

 If you think this looks wrong just put the guitar
 down and "read" along while listening to song and
 you'll see how it matches up.(that's what I always
 do before tackling a new song)