Incubus - A Certain Shade Of Green Text Guitar Tab

Learn song with the online tabulature player
e|---------------------------------------------12brb-12-10-12-10-14-12-10h12-12brb---|
B|-------------------------------------7-10-12---------------------------------------|
G|-------------4-7-9brb-p7-------7---7-----------------------------------------------|
D|-----4-7-4-7-------------9-7-9---9-------------------------------------------------|
A|-5-7-------------------------------------------------------------------------------|
E|-----------------------------------------------------------------------------------|

e|-12brb-p10-13-13-13p12-14-15-15-15p14--|
B|---------------------------------------|
G|---------------------------------------|
D|---------------------------------------|
A|---------------------------------------|
E|---------------------------------------|