Iron Maiden - Die With Your Boots On Text Bass Tab

Learn the song with the online tablature player
Intro
G:|-----------------------------------------------------------------------------------|
D:|-----------------------------------------------------------------------------------|
A:|-5-7-7-R-2-3 3-R-3-5-5-R-5-7-7-R-5-7777777777777-2-3333333333333-3-5555555555555---|
E:|-----------------------------------------------------------------------------------|

(0:23)Verse 1:
G:|-------------------|---------------------------------------|
D:|------------5------|*-----------5-55555------------555-7--*| x3
A:|-5-7777777-5-5-5---|*--7-777777---------3-333333-3------7-*|
E:|-----------------7-|---------------------------------------|

(0:45)Pre Chorus:
G:|----------------------------------|----------------------------------------------|
D:|----------5-55555------------555--|----------------------------------------------|
A:|-7-777777---------3-333333-3------|--1-111111---------3-333333----------1-111111-|
E:|----------------------------------|-1--------1-111111----------3-3333--1---------|

(1:07)Cause if you're gonna die...
G:|----------------------------|    |------------------------------------5--5--5--5--5-|
D:|*--------------------------*| x2 |--------------------------------------------------|
A:|*--------------------------*|    |----1-1111111111111111111111-1-3--3---3--3--3--3--|
E:|---1-111111-1-333333-1-3333-|    |--1-----------------------------------------------|

(1:19)If you're gonna die, die with your boots on...
G:|-777777-7/9-7-------------------------------------------------------------------------|
D:|--------------9-7----55555555555555555---------5555555555-5-------------555555555555--|
A:|------------------7--------------------3333333--------------7-5-----------------------|
E:|----------------------------------------------------------------7-5-5-7---------------|

(1:42)Verse 2:
G:|-------------------------------------------|--------------------------------------|
D:|-5555-5/7-5--------5555555555555555--------|*----------5-55555------------555-7--*| x3
A:|------------7-5---------------------7-5----|*-7-777777---------3-333333-3------7-*|
E:|----------------7-----------------------7-5|--------------------------------------|

(2:04)Pre Chorus:
G:|-----------------------------------|-----------------------------------------------|
D:|-----------5-55555------------555--|-----------------------------------------------|
A:|-7-777777---------3-333333-3-------|--1-111111---------3-333333-----------1-111111-|
E:|-----------------------------------|-1--------1-111111----------3-3333--1----------|

(2:26)Cause if you're gonna die...
G:|----------------------------|    |------------------------------------5---5--5--5--5--|
D:|*--------------------------*| x2 |----------------------------------------------------|
A:|*--------------------------*|    |----1-1111111111111111111111-1-3---3---3--3--3--3---|
E:|-1-111111-1-333333-1-3333---|    |--1-------------------------------------------------|

(2:37)If you're gonna die, die with your boots on...
G:|-777777-7/9-7-------------------------------------------------------------------------|
D:|--------------9-7----55555555555555555---------5555555555-5-------------555555555555--|
A:|------------------7--------------------3333333--------------7-5-----------------------|
E:|----------------------------------------------------------------7-5-5-7---------------|

G:|---------------------------------------------|
D:|-5555-5/7-5--------5555555555555555----------|
A:|------------7-5---------------------7 5------|
E:|----------------7-----------------------7-5--|

(3:00) Guitar Solo:
G:|-----9--9--------11--11----------12--12------------14--14----|
D:|-7-7--7--7--7-9-9--9---9--9-10-10--10--10--10-12-12--12--12--| x4
A:|-------------------------------------------------------------|
E:|-------------------------------------------------------------|

(3:22)3rd time enter vocals:
G:|--------------------------------------------------------------------|
D:|--------------------------------------------------------------------| x3
A:|------------------------------------------------------------3-3-3---|
E:|-5555555555555555-11111111111111-333333333333333-5555555555 3-3-3 3-|

(4:03) We died..
G:|-----------------------------------------------------------|------------------|
D:|-----------------------------------------------------------|------------------|
A:|-----------------------------------------------------------|------------------|
E:|-5555555555555555-11111111111111-333333333333333--5-5-5-5--|-5555555555555555-|

(4:14/4:25)
G:|----------------------------------9---11----12------|
D:|--------------------------------7--7-9--9-11--11-12-| x2
A:|----------------------------------------------------|
E:|-11111111111111-333333333333333---------------------|

(4:27)Pre Chorus:
G:|-------------------------------------------------------------------------|
D:|-------------------------------------------------------------------------|
A:|--1-111111---------3-333333----------1-111111----------------------------|
E:|----------1-111111---------3-3333--1----------1-111111-1-333333-1-3333---|

(4:37):
G:|--------------------------------------------------------------------------|
D:|--------------------------------------------------------------------------|
A:|--1-111111---------3-333333----------1-111111-----------------------------|
E:|-1---------1-111111---------3-3333--1-----------1-111111-1-333333-1-3333--|

(4:48) "Cause if you're gonna die...
G:|----------------------------------5---5--5--5--5--777777-7/9-7-------------------------|
D:|--------------------------------------------------------------9-7---55555555555555555--|
A:|---1-1111111111111111111111-1-3--3---3--3--3--3-------------------7--------------------|
E:|-1-------------------------------------------------------------------------------------|

G:|----------------------------------------------------------------------------------|
D:|----------5555555555-5-------------555555555555555-5/7-5--5--5555555555555555-----|
A:|--3333333--------------7-5------------------------------7--7----------------------|
E:|--------------------------7 5-5 7-------------------------------------------------|

(5:21)Die!:
G:|-----------------|
D:|-----------------|
A:|-8-7-5-3-5-3-3-7-|
E:|-----------------|