Iron Maiden - Stranger In A Strange Land Text Bass Tab

Learn the song with the online tablature player
  (0:00)                                                 (0:09)
(0:13)
 G---------------------------------------------------------------------------------------
 D---------------------------------------------------------------------------------------
 A---------------------------------------------------------------------------------------
 E-0-000-000-000-000-000-000-000-000-000-000-000-000-rest-0-000-000-000-000-000-000-0-3--

                            (0:17)                        (0:21)
 G---------------------------------------------------------------------------------------
 D---------------------------------------------------------------------------------------
 A-----------------------------5---------------------------------------------------------
 E-0-000-000-000-000-000-000-0---0-000-000-000-000-000-000-0-3--0-000-000-000-000-000----

          (0:26)     (0:29)            (0:31)                        (0:36)
 G-----------------------------------------------------------------------------------
 D-------------335--------335---------------------------------------------335--------
 A-------5-023-----2--023-----2--2/72--------------------------------023-----2-222--
 E-000-0--------------------------------0-000-000-000-000-000-000-00-----------------

                       (0:40)Verse1 (0:40 to 0:55)  (0:56)           (0:58)"No brave
new world...
 G---------------------|-----|----|------------------9999-7777-5553-------------------------------
 D-----335-------------|-----|-X28|--------------------------------------335------------335--------
 A-023-----2-22/72----|-----|----|----------------------------------023-----2-222--023-----2-2/7--
 E-------------------0-|-000-|----|----------------------------------------------------------------

 (1:02)                         (1:06)"No brave new world...     (1:11)
 G----------------------------------------------------------------------------------------------
 D-----------------------------------335------------335-----------------------------------------
 A-------------------------------023-----2-222--023-----2-22/72--------------------------------
 E-0-000-000-000-000-000-000-00-----------------------------------0-000-000-000-000-000-000-00--

 (1:16)Verse2 (1:16 to 1:31)  (1:31)                    (1:33)"Set me free...
  (1:37)
 G---|-----|----|-----------------------14--14--------------------------------------------------------------
 D---|-----|-X28|-------------12-141414---12--12-12129-----335------------335------------------------------
 A---|-----|----|---------------------------------------023-----2-222--023-----2-22/72---------------------
 E-0-|-000-|----|------------------------------------------------------------------------0-000-000-000-000--

              (1:42)"Lost in this place...     (1:47)
 G-----------------------------------------------------4------5------7----
 D-----------------335------------335-------------------------------------
 A-------------023-----2-222--023-----2-22/77--2222-2---2--3---3--5---5--
 E-000-000-00-------------------------------------------------------------

   (1:51)Chorus "Stranger in a strange land...     Play x2 (1:51 to 2:08)
 G-|------------------------------------------------------------|----|---
 D-|------------------------------------------------------------|-X2-|---
 A-|----------------------------------------------------------5-|----|---
 E-|-0-000-000-000-000-000-000-0-3--000-000-000-000-000-000-0---|----|---

 (2:08)Verse3 (2:08 to 2:24)  (2:24)                     (2:26)"No brave new world...
   (2:30)
 G---|-----|----|-----------------------14--14-----------------------------------------------------------
 D---|-----|-X28|-------------12121414----12--12-121214-----335------------335--------------------------
 A---|-----|----|----------------------------------------023-----2-222--023-----2-22/72-----------------
 E-0-|-000-|----|-------------------------------------------------------------------------0-000-000-000--

                   (2:35)"Lost in this place...   (2:39)
 G-----------------------------------------------------------5------7----
 D----------------------335-----------335--------------------------------
 A------------------023-----2-22--023-----2-22/10-22222222-3---3--5---5--
 E-000-000-000-000-------------------------------------------------------

 (2:43)"What became of the men...   (2:48)   (2:49)   (2:50)   (2:51) (2:52)"Let me
here in
this place...
 G--------------------------------------------------------------------------------------------------------
 D---------------------------------------------------------------------------------------2-222-2-4-44444--
 A----------2-222-22-3-333-33-555555-----------------------------------3-333-33-5-555-55------------------
 E-5-555-55--------------------------0-000-00-2-222-22-3-333-33-555555------------------------------------

  (2:56)                   (3:01)Chorus
 G---------------5----7-------------------------------------------------------------------
 D----------------------------------------------------------------------------------------
 A-22222222-3333----5---5-------------------------------------------------------------5--
 E--------------------------0-000-000-000-000-000-000-0-3--0-000-000-000-000-000-000-0----

  (3:09)
 G-----------------------------------------------------------
 D-----------------------------------------------------------
 A-----------------------------------------------------------
 E-0-000-000-000-000-000-000-0-3--0-000-000-000-000-000-000--

 (3:18)Bass Solo     (3:22)    (3:23)  (3:24)   (3:26)    (3:27) (3:28)
 G-14/16-14--------------------------------------------------5-------------5---------7-------------7----
 D----------17-16-14--12h14p12-----------------------------5---5---------5---5-----7---7---------7---7--
 A-----------------------------12h1412-10-9h10p9--5-7-5-3---------3h5p3---------5---------5h7p5---------
 E------------------------------------------------------------------------------------------------------

 (3:35)              (3:38)       (3:40)                      (3:43)           (3:45)
 G-14/16-14------------------------14/1614-12--11h12p11--------------------5----5h7-5-4-55-4----
 D----------17-16h17-141617161412-----------------------11-12--121412----5---5---------------5--
 A--------------------------------------------------------------------3-------------------------
 E----------------------------------------------------------------------------------------------

 (3:47)                       (3:51)Solo            (3:54)     (3:56)
(3:58)
 G--------7------9----9999--7--------------------------9---9------------------------7---7---7----
 D------7---7--9---9------9--------------------------9---9---9--------------------7---7---7---7--
 A-5555------------------------7-777-777-777-777-777------------5-555-555-555-555----------------
 E-----------------------------------------------------------------------------------------------

  (4:00)                (4:03)     (4:04)            (4:07)
 G-------------------------5---5--------------------------55555555------------------------
 D-----------------------5---5---5--------------------5-7---------------------------------
 A-3-333-333-333-333-333------------5-555-555-555-555--------------7-777-777-777-777-777--
 E----------------------------------------------------------------------------------------

 G---9---9------------------------7---7---7----------------------------5-------------------
 D-9---9---9--------------------7---7---7---7------------------------5---5-----------------
 A------------5-555-555-555-555----------------3-333-333-333-333-333--------5-555-555-555--
 E-----------------------------------------------------------------------------------------

                     (4:25)"What became of the men...               (4:29)   (4:30)
 G---7---7---7-------------------------------------------------------9-999-99-7-777-77--
 D-7---7---7---7------7-777-77-9-999-99-10-101010-1010-12-1212121212--------------------
 A---------------5/9--------------------------------------------------------------------
 E--------------------------------------------------------------------------------------

  (4:31)        (4:32)       (4:33)         (4:34)        (4:35)   (4:36)
 G-121212121212-141414141414-------------------------------9-999-9-11-1111111111--
 D---------------------------10-101010-1010-12-121212-1212------------------------
 A--------------------------------------------------------------------------------
 E--------------------------------------------------------------------------------

 (4:38)                        (4:41)Chors, Play Chorus to end Song (Like 5 times)
 G---------------55--5555/73-|--------------------------------------------------------------|----|--
 D----------------------------|--------------------------------------------------------------|-X5-|--
 A-22222222-3333--------------|------------------------------------------------------------5-|----|--
 E----------------------------|-0-000-000-000-000-000-000-0-3--0-000-000-000-000-000-000-0---|----|--