Joy Division - Wilderness Text Guitar Tab

Learn song with the online tabulature player
-------------------------------------------------------------------------------
                             Wilderness - Joy Division
-------------------------------------------------------------------------------
Tabbed by: Gallagher2006
 
Tuning: Standard

Guitar comes in after the bass slides and the drums kick in

e|----------------------|
B|----------------------|
G|-7--x-3-3-x--5-5-5----|
D|-7--x-3-3-x--5-5-5----|
A|-5--x-1-1-x--3-3-3----|
E|----------------------|

Bass slides again and then you play this chord (Don’t let it ring)

e|---------|
B|---------|
G|--5--5---|
D|--5--5---|
A|--3--3---|
E|---------|

The verse riff is just the intro riff again


e|----------------------|
B|----------------------|
G|-7--x-3-3-x--5-5-5----|
D|-7--x-3-3-x--5-5-5----|
A|-5--x-1-1-x--3-3-3----|
E|----------------------|

Then the break again...

e|---------|
B|---------|
G|--5--5---|
D|--5--5---|
A|--3--3---|
E|---------|

This continues until the solo

e|---------------------------------------------------------------------------|
B|---------------------------------------------------------------------------|
G|--5h-7-x-7-x-7-7-x-7-7-5h7-x-7-x-7-x-7-7-Etc-------------------------------|
D|---------------------------------------------------------------------------|
A|---------------------------------------------------------------------------|
E|---------------------------------------------------------------------------|

Next part of solo repeated a few times...

e|---------------|
B|---------------|
G|---------------|
D|---------------|
A|--5------------|
E|-----6---3v----|

Pretty easy song =]