King Crimson - Epitaph Text Bass Tab

Learn the song with the online tablature player
Epitaph by King Crimson

 bass by Greg Lake

 INTRO

 G|--------------------|
 D|--------------------|
 A|--------------------|
 E|-0----2----5----7---|

 VERSE 1

 G|----------------------------|
 D|-----2-----4------7-----9---|
 A|---2-----4-----7------9-----|
 E|-0-----2-----5-----7--------| X4

 PRE-CHORUS

 G|-------------------4---------------|
 D|-----2-----------4-----------------|
 A|---2-----------2-------------------|
 E|-0---------------------------------|

 CHORUS

 G|------55555555-----44444444---------|
 D|----5------------4------------------|
 A|--3------------2--------------------|
 E|------------------------------------|

 VERSE 2,3

 G|-----------------------------------------------------------|
 D|------22222222-----44444444-----77777777-----99999999------|
 A|----2------------4------------7------------9---------------|
 E|--0------------2------------5------------7-----------------|

 BRIDGE1

 G|-----------------------------------------------------------|
 D|-----------------------------------------------------------|
 A|-----------------------------------------------------------|
 E|--8-8-8-8-8-8-8-8-8-8-8-8-8-8-8-8-8-8-8-8...............---| TO BRIDGE 2

 INTRO X2
 VERSE 1 X4
 PRE-CHORUS X3
 CHORUS X3
 VERSE 1 X1
 VERSE 2 X4
 BRIDGE 1

BRIDGE 2
NO BASS)
 VERSE 3 X4
 PRE-CHORUS X3
 CHORUS TO THE END