Lamb Of God - Redneck Text Guitar Tab

Learn the song with the online tablature player
                                                    REDNECK - Lamd of God

the other tab was a little difficult to understand, so hopefully this will help.

INTRO
Guitar 1
e|------|--------------------------------------------------------------|
B|------|--------------------------------------------------------------|
G|------|--------------------------------------------------------------|2x
D|------|--------------------------------------------------------------|
A|-1/9\-|--------------------------------------------------------------|
D|-1/9\-|-3p0-0-0-0-0-0-0-10h12p10~0-0-3p0-0-0-0-0-0-0-3p1p0-3p1p0-5h6-|
              . . . . . .          . .     . . . . . .
(Do slide 1st time
     only)

Guitar 2
e|------|-----------|
B|------|-----------|
G|------|-----------|2x
D|------|-----------|
A|-1/9\-|-0-0-0-0-0-|
D|-1/9\-|-0-0-0-0-0-|
(same time as Guitar 1)

e|--------------------------------------------------------------|
B|--------------------------------------------------------------|
G|--------------------------------------------------------------|
D|--------------------------------------------------------------|
A|--------------------------------------------------------------|
D|-3p0-0-0-0-0-0-0-10h12p10~0-0-3p0-0-0-0-0-0-0-3p1p0-3p1p0-5h6-|
       . . . . . .          . .     . . . . . .
Guitar 2
e|-----------|
B|-----------|
G|-----------|
D|-----------|
A|-0-0-0-0-0-|
D|-0-0-0-0-0-|

Guitar 1&2
e|---------------------------------|
B|---------------------------------|
G|---------------------------------|
D|---------------------------------|
A|-----------------3---------------|
D|-0-3-5-6-3-5-6-7---7-6-5-7-6-5-3-|
   . . . . . . . . . . . . . . . .
PRE-VERSE
Guitar 1&2
e|---------------------------------------------------------|
B|---------------------------------------------------------|
G|---------------------------------------------------------|
D|-0-------------------------------------------------------|
A|-0-------------------------------------------------------|
D|-0-0-0-0-0-10h12p10*~0-0-3p0-0-0-0-0-0-0-3p1p0-3p1p0-5h6-|
     . . . .           . .     . . . . . .
e|--------------------------------------------------------------------|
B|--------------------------------------------------------------------|
G|--------------------------------------------------------------------|
D|--------------------------------------------------------------------|
A|--------------------------------------------------------------------|
D|-3p0-0-0-0-0-0-0-10h12p10~0-0-7-6-5-3-3h0-0-0-0-0-10h12p10~-0-0-3p0-|
       . . . . . .          . .             . . . .           . .
e|---------------------------------------------------------|
B|---------------------------------------------------------|
G|---------------------------------------------------------|
D|---------------------------------------------------------|
A|-----------------------------------------3---------------|
D|-0-0-0-0-7\6-0-6\5-0-5\4-0-3-5-6-3-5-6-7---7-6-5-7-6-5-3-|

VERSE 1
Guitar 1&2
e|--------------------------------------------|
B|--------------------------------------------|
G|--------------------------------------------|2x
D|-0------------------------------------------|
A|-0-1/9\-1-0-0-00-00-0000-00-0000-00-0000-00-|
D|-0-1/9\-1-0-0-00-00-0000-00-0000-00-0000-00-|
(do slide 1st time)

e|-----------------------------------------------------------|
B|-----------------------------------------------------------|
G|-----------------------------------------------------------|
D|-----------------------------------------------------------|
A|-7-5-6-3---------------------------------------------------|
E|-7-5-6-3-0-0-0-0-0-7\6-0-6\5-0-5\4-0-0-0-0-7\6-0-6\5-0-5\4-|

Guitar 1&2
e|---------------------------------|
B|---------------------------------|
G|---------------------------------|
D|---------------------------------|
A|-5-----------6-----------6-------|
D|---6-5-0-5-7---7-5-0-5-7---7-5-3-|
     . . . . .   . . . . .   . . .

CHORUS
Guitar 1&2
e|--------------------------------------------------------|
B|--------------------------------------------------------|
G|--------------------------------------------------------|
D|-0------------------------------------------------------|
A|-0------------------------------------------------------|
D|-0-0-0-0-0-10h12p10~0-0-3p0-0-0-0-0-0-0-3p1p0-3p1p0-5h6-|
     . . . .           . .     . . . . . .
e|--------------------------------------------------------------------|
B|--------------------------------------------------------------------|
G|--------------------------------------------------------------------|
D|--------------------------------------------------------------------|
A|--------------------------------------------------------------------|
D|-3p0-0-0-0-0-0-0-10h12p10~0-0-7-6-5-3-3h0-0-0-0-0-10h12p10~-0-0-3p0-|
       . . . . . .          . .             . . . .           . .
e|----------------------------------------------------------------------|
B|----------------------------------------------------------------------|
G|----------------------------------------------------------------------|
D|----------------------------------------------------------------------|
A|----------------------------------------------------------------------|
D|-0-0-0-0-7\6-0-6\5-0-5\4-3p0-0-0-0-0-10h12p10~0-0-3p0-3p1p0-3p1p0-5h6-|
   . . . . . . . . . . . .     . . . .          . .
Guitar 1&2
e|---------------------------------|
B|---------------------------------|
G|---------------------------------|
D|---------------------------------|
A|-----------------3---------------|
D|-0-3-5-6-3-5-6-7---7-6-5-7-6-5-3-|
   . . . . . . . . . . . . . . . .

VERSE 2
Guitar 1&2
e|--------------------------------------------|
B|--------------------------------------------|
G|--------------------------------------------|2x
D|-0------------------------------------------|
A|-0-1/9\-1-0-0-00-00-0000-00-0000-00-0000-00-|
D|-0-1/9\-1-0-0-00-00-0000-00-0000-00-0000-00-|
(do slide 1st time)

e|-----------------------------------------------------------|
B|-----------------------------------------------------------|
G|-----------------------------------------------------------|
D|-----------------------------------------------------------|
A|-7-5-6-3---------------------------------------------------|
E|-7-5-6-3-0-0-0-0-0-7\6-0-6\5-0-5\4-0-0-0-0-7\6-0-6\5-0-5\4-|

Guitar 1&2
e|---------------------------------|
B|---------------------------------|
G|---------------------------------|
D|---------------------------------|
A|-5-----------6-----------6-------|
D|---6-5-0-5-7---7-5-0-5-7---7-5-3-|
     . . . . .   . . . . .   . . .

e|--------------------------------------------------------|
B|--------------------------------------------------------|
G|--------------------------------------------------------|
D|-0------------------------------------------------------|
A|-0------------------------------------------------------|
D|-0-0-0-0-0-10h12p10~0-0-3p0-0-0-0-0-0-0-3p1p0-3p1p0-5h6-|
     . . . .           . .     . . . . . .
e|--------------------------------------------------------------------|
B|--------------------------------------------------------------------|
G|--------------------------------------------------------------------|
D|--------------------------------------------------------------------|
A|--------------------------------------------------------------------|
D|-3p0-0-0-0-0-0-0-10h12p10~0-0-7-6-5-3-3h0-0-0-0-0-10h12p10~-0-0-3p0-|
       . . . . . .          . .             . . . .           . .
e|----------------------------------------------------------------------|
B|----------------------------------------------------------------------|
G|----------------------------------------------------------------------|
D|----------------------------------------------------------------------|
A|----------------------------------------------------------------------|
D|-0-0-0-0-7\6-0-6\5-0-5\4-3p0-0-0-0-0-10h12p10~0-0-3p0-3p1p0-3p1p0-5h6-|
   . . . . . . . . . . . .     . . . .          . .
Guitar 1&2
e|---------------------------------|
B|---------------------------------|
G|---------------------------------|
D|---------------------------------|
A|-----------------3---------------|
D|-0-3-5-6-3-5-6-7---7-6-5-7-6-5-3-|
   . . . . . . . . . . . . . . . .

INTRLUDE
Guitar 1
e|-----------|
B|-----------|
G|-----------|3x
D|-----------|
A|-0-7-6-5-3-|
E|-0-7-6-5-3-|
           .
Guitar 2
e|---------------|
B|-10~-12~-13~~~-|
G|---------------|
D|---------------|
A|---------------|
D|---------------|

BREAK
Guitar 1&2 (guitar 2 comes in on the 0, and plays the rest of the time w/
e|---------------------------------------------|guitar 1)
B|---------------------------------------------|
G|---------------------------------------------|5x
D|---------------------------------------------|
A|------11h13----------------------------------|
D|-12h13-----12h13-10h13-11h13-10h13-11h14-0tp-|

BREAK VARIATION
Guitar 1&2
e|------------------------------------------------------------|
B|------------------------------------------------------------|
G|------------------------------------------------------------|4x
D|-----0------------------------------------------------------|(dont play
A|-0-0-0-00-00-0000-0------11h13------------------------------|the the fast part
D|-0-0-0-00-00-0000-0-12h13-----12h13-10h13-11h13-10h13-11h14-|the 4th time)
   . .   .. .. .... .

OUTRO/CHORUS
Guitar 1
e|--------------------------------------------------------------|
B|--------------------------------------------------------------|
G|--------------------------------------------------------------|2x
D|--------------------------------------------------------------|
A|--------------------------------------------------------------|
D|-3p0-0-0-0-0-0-0-10h12p10~0-0-3p0-0-0-0-0-0-0-3p1p0-3p1p0-5h6-|
       . . . . . .          . .     . . . . . .

Guitar 1&2
e|---------------------------------|
B|---------------------------------|
G|---------------------------------|
D|---------------------------------|
A|-----------------3---------------|
D|-0-3-5-6-3-5-6-7---7-6-5-7-6-5-3-|
   . . . . . . . . . . . . . . . .

Guitar 1&2
e|--------------------------------------------------------|
B|--------------------------------------------------------|
G|--------------------------------------------------------|
D|-0------------------------------------------------------|
A|-0------------------------------------------------------|
D|-0-0-0-0-0-10h12p10~0-0-3p0-0-0-0-0-0-0-3p1p0-3p1p0-5h6-|
     . . . .           . .     . . . . . .

e|--------------------------------------|
B|--------------------------------------|
G|--------------------------------------|
D|--------------------------------------|
A|--------------------------------------|
D|-3p0-0-0-0-0-0-0-10h12p10~0-0-7-6-5-3-|
       . . . . . .          . .

e|----------------------------------------------------------|
B|----------------------------------------------------------|
G|----------------------------------------------------------|
D|----------------------------------------------------------|
A|----------------------------------------------------------|
D|-3p0-0-0-0-0-10h12p10~0-0-3p0-0-0-0-0-0-0-3p1p0-3p1p0-5h6-|
       . . . .          . .     . . . . . .

e|--------------------------------------|
B|--------------------------------------|
G|--------------------------------------|
D|--------------------------------------|
A|--------------------------------------|
D|-3p0-0-0-0-0-0-0-10h12p10~0-0-7-6-5-3-|
       . . . . . .          . .

e|----------------------------------------------------------|
B|----------------------------------------------------------|
G|----------------------------------------------------------|
D|----------------------------------------------------------|
A|----------------------------------------------------------|
D|-3p0-0-0-0-0-10h12p10~0-0-3p0-0-0-0-0-0-0-3p1p0-3p1p0-5h6-|
       . . . .          . .     . . . . . .

e|--------------------------------------|
B|--------------------------------------|
G|--------------------------------------|
D|--------------------------------------|
A|--------------------------------------|
D|-3p0-0-0-0-0-0-0-10h12p10~0-0-7-6-5-3-|
       . . . . . .          . .

e|----------------------------------------------------------|
B|----------------------------------------------------------|
G|----------------------------------------------------------|
D|----------------------------------------------------------|
A|----------------------------------------------------------|
D|-3p0-0-0-0-0-10h12p10~0-0-3p0-0-0-0-0-0-0-3p1p0-3p1p0-5h6-|
       . . . .          . .     . . . . . .

e|---------------------------------------------------------|
B|---------------------------------------------------------|
G|---------------------------------------------------------|
D|---------------------------------------------------------|
A|-----------------------------------------3---------------|
D|-0-0-0-0-7\6-0-6\5-0-5\4-0-3-5-6-3-5-6-7---7-6-5-7-6-5-3-|
                             . . . . . . .   . . . . . . .
Guitar 1
e|-----------|
B|-----------|
G|-----------|11x
D|-----------|(on the fifth time,
A|-0-7-6-5-3-|double all the opens)
E|-0-7-6-5-3-|
           .

Guitar 2(listen for timing)
e|----------------------------------------|
B|-10~-12~-12~-13~~~-10~-12~-20hb~~~-22~~-|
G|----------------------------------------|
D|----------------------------------------|
A|----------------------------------------|
D|----------------------------------------|

END

Im not positive, but i think Guitar 2 hits a harmonic on the high e
string at the end, but do it your way. i tried to make this as acurate as
posible, so hope you enjoi!

| /  slide up
| \  slide down
| h  hammer-on
| p  pull-off
| hb half bend
| ~  vibrato
| *  pinch harmonic
| +  harmonic
| tp tremolo pick
| .  Mute note