Lamb Of God - Ruin Text Guitar Tab

Learn the song with the online tablature player
.  - palm mute           /  - slide up to
\  - slide down to       ~  - vibrato
h  - hammer on
p  - pull off            Suffixes for bend
() - ghost note          f  - full bend    h - half bend
q  - quarter bend        t - tap bend      (f or h) - full or half pre-bend
*  - see comment         ^  - Hold bend    r release bend

Tunning D A D G B E

I'm only tabbing out the riffs you can listen for how many times to play each

riff 1
|---------------------------|
|---------------------------|
|o-------------------------o|
|o-0-0-0-5---6-0-0-0-5---6-o|
|--0-0-0-5---6-0-0-0-5---6--|
|--0-0-0-5-0-6-0-0-0-5-0-6--|
   . . .   .   . . .   .

riff 2
|---------------------------------------------------|
|---------------------------------------------------|
|o-------------------------------------------------o|
|o-------------------------------------------------o|
|---------------------------------------------------|
|--2-222-5-2-6-2-222-5-2-6-2-222-5-2-6-2-5-2-3-2-5--|
   . ...   .   . ...   .   . ...   .   .   .   .

 gtr.2 w/riff 2
|---------------------------------------------------|
|---------------------------------------------------|
|o-------------------------------------------------o|
|o-------------------------------------------------o|
|--------2---3-------2---3-------2---3---2---0---2--|
|--2-222---2---2-222---2---2-222---2---2---2---2----|

back to riff 1

riff 3
|----------------------------|----------------------------|
|----------------------------|----------------------------|
|----------------------------|----------------------------|
|----------------------------|----------------------------|
|----------------------------|---------------8-7---6-5----|
|-0-0-0-12-0-13-0-0-0-00-0-0-|-0-0-0-12-0-13-----9-----8--|
  . . .    .    . . . .. . .   . . .    .

|----------------------------|--------------------------|
|----------------------------|--------------------------|
|----------------------------|--------------------------|
|----------------------------|--------------------------|
|----------------------------|-------6-----5------------|
|-0-0-0-12-0-13-0-0-0-00-0-0-|-0-6-7---7-6---6-5-0-3-6--|
  . . .    .    . . . .. . .   . . .   . .   . . . . .

|----------------------------|----------------------------|
|----------------------------|----------------------------|
|----------------------------|----------------------------|
|----------------------------|----------------------------|
|----------------------------|---------------8-7---6-5----|
|-0-0-0-12-0-13-0-0-0-00-0-0-|-0-0-0-12-0-13-----9-----8--|
  . . .    .    . . . .. . .   . . .    .

|----------------------------|--------------------------|
|----------------------------|--------------------------|
|----------------------------|--------------------------|
|----------------------------|--------------------------|
|----------------------------|-----3-3/6-6-6\5-5-3/5-5--|
|-0-0-0-12-0-13-0-0-0-00-0-0-|-0h3-3-3/6-6-6\5-5-3/5-5--|
  . . .    .    . . . .. . .

gtr.2 w/riff 3
|--------------------------|----------------------------|
|--------------------------|----------------------------|
|--------------------------|----------------------------|
|-------7---8--------------|-------7---8-10-9----9-8----|
|--------------------------|------------------10-----7--|
|-0-0-0---0---0-0-0-00-0-0-|-0-0-0---0------------------|
  . . .   .   . . . .. . .   . . .   .

|--------------------------|--------------------------|
|--------------------------|--------------------------|
|--------------------------|--------------------------|
|-------7---8--------------|--------------------------|
|--------------------------|-------6-----5------------|
|-0-0-0---0---0-0-0-00-0-0-|-0-6-7---7-6---6-5-0-3-6--|
  . . .   .   . . . .. . .   . . .   . .   . . . . .

|--------------------------|----------------------------|
|--------------------------|----------------------------|
|--------------------------|----------------------------|
|-------7---8--------------|-------7---8-10-9----9-8----|
|--------------------------|------------------10-----7--|
|-0-0-0---0---0-0-0-00-0-0-|-0-0-0---0------------------|
  . . .   .   . . . .. . .   . . .   .

|--------------------------|--------------------------|
|--------------------------|--------------------------|
|--------------------------|--------------------------|
|-------7---8--------------|--------------------------|
|--------------------------|-----3-3/6-6-6\5-5-3/5-5--|
|-0-0-0---0---0-0-0-00-0-0-|-0h3-3-3/6-6-6\5-5-3/5-5--|
  . . .   .   . . . .. . .

riff 4
|---------------------------------------------------|
|---------------------------------------------------|
|o--------------------------------------------------|
|o--------------------------------------------------|
|----------5-5---------6-6---------5-5-6-6-6-3-3-3--|
|--0-0-0-0-----0-0-0-0-------0-0-0------------------|

|--------------------------------------------------|
|--------------------------------------------------|
|-------------------------------------------------o|
|-------------------------------------------8/7-7-o|
|---------5-5---------6-6---------5-5-6-6-6--------|
|-0-0-0-0-----0-0-0-0-------0-0-0------------------|

gtr.2 w/riff 4
|----------------------------------------------------|
|----------------------------------------------------|
|o---------------------------------------------------|
|o---------3-3----------5-5---------3-3-5-5-5--------|
|---------------------------------------------6-6-6--|
|--0-0-0-0-----0-0-0-0--------0-0-0------------------|

|--------------------------------------------------|
|--------------------------------------------------|
|-------------------------------------------3/2-2-o|
|---------3-3---------5-5---------3-3-5-5-5-------o|
|--------------------------------------------------|
|-0-0-0-0-----0-0-0-0-------0-0-0------------------|

bridge
 gtr.1
|------------------------------------------------|
|------------------------------------------------|
|------------------------------------------------|
|------------------------------------------------|
|-0---------1------------------------------------|
|-0---0-0-0-1p0-0-0-0-0-4p0-3p0-0-0-0-3-5-0-3-6--|
|
|gtr.2
|------------------------------------------------|
|------------------------------------------------|
|-9----------------------------------------------|
|-7----------------------------------------------|
|-5----------------------------------------------|
|-0----------------------------------------------|

 gtr.1
|------------------------------------------------|
|------------------------------------------------|
|------------------------------------------------|
|------------------------------------------------|
|-0---------1------------------------------------|
|-0---0-0-0-1p0-0-0-0-0-4p0-3p0-0-0-0-3-5-0-3-6--|
|
|gtr.2
|------------------------------------------------|
|------------------------------------------------|
|-10---------------------------------------------|
|-8----------------------------------------------|
|-6----------------------------------------------|
|------------------------------------------------|

back to riff 3

solo
|-12--(12)fr~-----------------------------------------------|
|-------------------------------7-8p7----------10fr~--7fr~--|
|---------------7(h)----------8-------9-8----8--------------|
|-------------------------7-9-------------10----------------|
|--------------------7910-----------------------------------|
|-----------------------------------------------------------|
                     ...  . .             .

|-19-15----15-19-15-20-15-19-15-17-15-17-14----14-17-14-19-14-17-14-15-14--|
|-------17----------------------------------17-----------------------------|
|--------------------------------------------------------------------------|
|--------------------------------------------------------------------------|
|--------------------------------------------------------------------------|
|--------------------------------------------------------------------------|

|-17-14----14-17-14-19-14-17-14-15-14-15-14----14----------------------------|
|-------15----------------------------------17----17-15-17-15-13-15-13-12-15-|
|----------------------------------------------------------------------------|
|----------------------------------------------------------------------------|
|----------------------------------------------------------------------------|
|----------------------------------------------------------------------------|

back to riff 4
then drum fill

riff 5
|-------------------------------------------------------------|
|-------------------------------------------------------------|
|o-----------------------------------------------------------o|
|o-----------------------------------------------------------o|
|-------------------66666/101010-------------------66666\333--|
|--0-0--00000-0-0-00--------------0-0--00000-0-0-00-----------|
   . .  ..... . . ..              . .  ..... . . ..

riff 6
 gtr.1
|----------------------------------------------------------|
|----------------------------------------------------------|
|o--------------------------------------------------------o|
|o--------------------------------------------------------o|
|-----------------66666/101010------------------66666\333--|
|--0-0-0000-0-0-00--------------0-0-0000-0-0-00------------|
|
|gtr.2
|------------------------------------------------------|
|------------------------------------------------------|
|o----------------------------------------------------o|
|o----------------88888/555-----------------88888\222-o|
|------------------------------------------------------|
|--0-0-0000-0-0-00-----------0-0-0000-0-0-00-----------|

riff 7
 gtr.1
|----------------------------------------------------------------|
|----------------------------------------------------------------|
|o--------------------------------------------------------------o|
|o--------------------------------------------------------------o|
|--0-0-0--0-0--0-0--5h6-6-6/10-10--0-0-0--0-0--0-0--5h6-6-6\3-3--|
|--0-0-0--0-0--0-0-----------------0-0-0--0-0--0-0---------------|
|
|gtr.2
|---------------------------------------------------------------|
|---------------------------------------------------------------|
|o-------------------------------------------------------------o|
|o------------------7-8-8-8-5--5-------------------7-8-8-8\2-2-o|
|--0-0-0--0-0--0-0----------------0-0-0--0-0--0-0---------------|
|--0-0-0--0-0--0-0----------------0-0-0--0-0--0-0---------------|

outro
|--------------------------------------------------------------18---18---|
|-17f~~~~~r--17f~~~~~--17f--17f--17f-~~~(17)\-----17f\---17fr--17f--17f--|
|--------------------------------------------\--------\------------------|
|---------------------------------------------\--------\-----------------|
|------------------------------------------------------------------------|
|------------------------------------------------------------------------|
*note* ~ - shake with bar                dive     dive

   dive w/bar
|---\---------------------------------|
|----\--------\-----------------------|
|-13--\--------\----------------------|
|------\--------\---------------------|
|-------\--------\----0-0--0---0------|
|----------20-----\---0-0--0---0---0--|
                      . .  .   .   .