Mac Miller - Nikes On My Feet Chords

 
No chord
    
Standard guitar tuning:
E
A
D
G
B
E
No capo
e:|--0--0--3--3-----8--8--0--0------------------------------------------------|
B:|--1--1--1--1-----6--6--1--1------------------------------------------------|
G:|---------------------------------------------------------------------------|
D:|-----------------0---------------------------------------------------------|
A:|--0-----0-----0--------0-----0---------------------------------------------|
E:|---------------------------------------------------------------------------|
This is the chords for the entire song.
e:|---0-----3-----8-----0-----------------------------------------------------|
B:|---1-----1-----6-----1-----------------------------------------------------|
G:|---2-----2-----7-----2-----------------------------------------------------|
D:|---2-----2-----0-----2-----------------------------------------------------|
A:|---0-----0-----------0-----------------------------------------------------|
E:|---------------------------------------------------------------------------|

All Content on this page is the property of the copyright owner of the original composition.