Metallica - Dyers Eve Text Bass Tab

Learn the song with the online tablature player
Note - I was tired of that other tab, this one is fucking great, even though quite
       pointless since the actual song seems to have no bass (except the drum).
Anywho
       here's the correct version of Dyers Eve.

Intro
G|-----------------|-------------------------|-----------------------------|
D|-----------------|-------------------------|-----------------------------|
A|-2-3-2-3---------|-------------------------|-----------------------------|
E|---------0-1-0-1-|-0--1--0--3-0--1--0--0-1-|-0--1--0--3-0--1--0--0-1-0-1-|

G|--------------------------------------------|
D|--------------------------------------------|
A|-2-----------2--------2-----------2---------|
E|---0-0-1-0-0---0-0-3----0-0-1-0-0---0-0-0-1-|

G|--------------------------------------------|
D|--------------------------------------------|
A|-2-----------2--------2-----------2---------|
E|---0-0-1-0-0---0-0-3----0-0-1-0-0---0-1-0-1-|

G|--------------------------------------------|
D|--------------------------------------------|
A|-2-----------2--------2-----------2---------|
E|---0-0-1-0-0---0-0-3----0-0-1-0-0---0-0-0-1-|

G|-----------------------------------------------|
D|-----------------------------------------------|
A|-2-----------2--------2-----------2------------|
E|---0-0-1-0-0---0-0-3----0-0-1-0-0---0-1-0-1-0--|

Riff 1
G|--------------------|-------------------|-------------------|-------------------|
D|--------------------|-------------------|-------------------|---------------5-4-|
A|-2-2222222-3-2--0-2-|-22222222-3-2--0-2-|-22222222-3-2--0-2-|-222222222-3-2-----|
E|--------------------|-------------------|-------------------|-------------------|

Riff 1a
G|--------------------|----------------------|-------------------|------------------|
D|--------------------|----------------------|-------------------|--------------5-4-|
A|-2-2222222-3-2--0-2-|-22222222-3-2----00-2-|-22222222-3-2--0-2-|-22222222-3-2-----|
E|--------------------|----------------------|-------------------|------------------|

Riff 2
G|-----------------------|
D|-----------------------|
A|-----------------------|
E|-0--320--320--320--320-|

Riff 3
G|---------------------------------|-----------------------------|
D|---------------------------------|-----------------------------|
A|-2-222222-0-2-0-2-3--3-3-2-2-----|--------7-----5-----3-----|
E|-----------------------------320-|-0--320----320----320----320-|

G|---------------------------------|-----------------------------|
D|---------------------------------|-----------------------------|
A|-2-222222-0-2-0-2-3--3-3-2-2-----|--------7------5------3------|
E|-----------------------------320-|-0---------------------------|

G|--------------------------------|
D|--------------------------------|
A|-2-222222-0-2-0-2-3--33333------|
E|---------------------------//-|

Play Riff 1
Play Riff 1a

Lead Into Next Section
G|-------------|
D|-------------|
A|-------------|
E|-0--320-0--0-|

Riff 4
G|-------------------------|-------------------------|------------------------------|
D|-------------------------|-------------------------|------------------------------|
A|---------------------2-3-|-------------------------|-9----5--------------3-2--3-3-|
E|-2----3----5----0--------|-2----3----0----5----2-3-|-----------5----3-------------|

Riff 1b
G|-------------------|-------------------|
D|-------------------|-------------------|
A|-2-222222-3-2--0-2-|-22222222-3-2--0-2-|
E|-------------------|-------------------|

Riff 4a
G|-------------------------|-----------------------------------|
D|-------------------------|-----------------------------------|
A|-------------------------|-9----5--------------222-2-222-2-3-|
E|-2----3----0----5----2-3-|-----------5----3------------------|

Play Riff 1

Riff 5
G|-------------|---------------------------------|-------------|
D|-------------|---------------------------------|-------------|
A|-------------|-2-222222-0-2-0-2-3--3-3-2-2-----|-------------|
E|-0--320--320-|-----------------------------320-|-0--320-0--0-|

Riff 6
G|-----------------------------|--------------------------|
D|-----------------------------|--------------------------|
A|---------------------------7-|-555-5-555-5--------------|
E|-000-0-0-000-0-0-0--320-0----|--------------0--320-0--0-|

G|-----------------------------|------------------------------|
D|-----------------------------|------------------------------|
A|---------------------------7-|-0-1-2--3--3--222-222-222-222-|
E|-000-0-0-000-0-0-0--320-0----|------------------------------|

Play Riff 1
Play Riff 1a

Lead Into Next Section
G|-------------|
D|-------------|
A|-------------|
E|-0--320-0--0-|

Play Riff 4
Play Riff 1b
Play Riff 4a
Play Riff 1
Play Riff 5
Play Riff 6
Play Riff 1

Riff 1b
G|--------------------|----------------------|-------------------|----------|
D|--------------------|----------------------|-------------------|----------|
A|-2-2222222-3-2--0-2-|-22222222-3-2----00-2-|-22222222-3-2--0-2-|-22222222-|
E|--------------------|----------------------|-------------------|----------|

G|-----------------|--------------------------------------------|
D|-----------------|--------------------------------------------|
A|-2-3-2-3---------|-2-----------2--------2-----------2---------|
E|---------0-1-0-1-|---0-0-1-0-0---0-0-3----0-0-1-0-0---0-0-0-1-|

G|--------------------------------------------|
D|--------------------------------------------|
A|-2-----------2--------2-----------2---------|
E|---0-0-1-0-0---0-0-3----0-0-1-0-0---0-1-0-1-|

G|----------------------------------------------------|
D|----------------------------------------------------|
A|-2-----------2--------2-----------2---------2-3-2-3-|
E|---0-0-1-0-0---0-0-3----0-0-1-0-0---0-1-0-1---------|

Riff 7
solo rhythm)
G|------------------------------------------------------------------------|----|
D|------------------------------------------------------------------------|-2x-|
A|----------3-2--0-2----------3-2--0-2----------3-2--0-2------------------|----|
E|-0-000000----------00000000----------00000000----------00000000-0-1-0-1-|----|

G|-------------------------------------|------------------------------------|
D|-------------------------------------|------------------------------------|
A|-------------------------------------|------------------------------------|
E|-2-222222-3-2--0-2-22222222-3-2--0-2-|-22222222-3-2--0-2-22222222-2-3-2-3-|

G|-------------------------------------|--------------------------------------------|
D|-------------------------------------|--------------------------------------------|
A|-------------------------------------|--------------------------------------------|
E|-2-222222-3-2--0-2-22222222-3-2--0-2-|-22222222-3-2--0-2-22222222-222-222-222-222-|

G|-------------------------|-------------------------------------|
D|-------------------------|-------------------------------------|
A|---------------------2-3-|-------------------------------------|
E|-2----3----5----0--------|-2-222222-3-2--0-2-22222222-3-2--0-2-|

G|---------------------------|---------------------------------|
D|---------------------------|---------------------------------|
A|---------------------------|---------------------------------|
E|-22222222-3-2--0-2-2222222-|-222-222-222-222-222-222-222-222-|

G|-------------------------------------|------------------------------------|
D|-------------------------------------|------------------------------------|
A|----------3-2--0-2----------3-2--0-2-|----------3-2--0-2------------------|
E|-0-000000----------00000000----------|-00000000----------00000000-0-1-0-1-|

G|------------------------------------------------|----------|
D|------------------------------------------------|----------|
A|-9----5-----------------------------------------|----------|
E|-----------5----333-333-333-333-333-333-333-333-|-3----3-3-|

Riff 8
G|-------------------------------------|-----------------------------------|
D|-------------------------------------|-----------------------------------|
A|----------3-2--0-2----------3-2--0-2-|----------3-2--0-2-----------------|
E|-0-000-00----------0-000-00----------|-0-000-00----------0-000-000-1-0-1-|

G|---------------------------------------|--------------------------------|
D|---------------------------------------|--------------------------------|
A|----------3-2--0-2----------3-2----0-2-|--------3-2--0-2----------------|
E|-0-000-00----------0-000-00------------|-000-00----------0-000-000-1--1-|

G|-------------------------------------|-----------------------------------|
D|-------------------------------------|-----------------------------------|
A|----------3-2--0-2----------3-2--0-2-|----------3-2--0-2-----------------|
E|-0-000-00----------0-000-00----------|-0-000-00----------0-000-000-1-0-1-|

G|---------------------------------------|-----------------------------------|
D|---------------------------------------|-----------------------------------|
A|----------3-2--0-2----------3-2----0-2-|----------3-2--0-2-----------------|
E|-0-000-00----------0-000-00------------|-0-000-00----------0-000-000-1-0-1-|

G|--------------------|-----------------------------------|--------------|
D|--------------------|-----------------------------------|--------------|
A|--------------------|-----------------------------------|--------------|
E|-0--320-0--0--320-0-|-0--320--320--320--000-000-000-000-|-0--320-0--0--|

Play Riff 4a

Ending
G|-----------------|
D|-----------------|
A|-2-3-2-3---------|
E|---------0-1-0-1-|

G|----------------------------------------------|
D|----------------------------------------------|
A|-2-----------2--------2-----------2-----------|
E|---0-0-1-0-0---0-0-3----0-0-1-0-0---0-0-0-1-0-|