Metallica - I Disappear Text Bass Tab

Learn the song with the online tablature player
Intro
G---------|--------|--------|--------|
D---------|--------|--------|--------|
A---------|--------|--------|--------|
E-0--0-0--|---0-0--|---0-0--|---0-0--|

2nd Intro:
G-------|*---------*|
D-------|*---------*|
A-------|*---------*|
E-0--7~-|*--5-0--7~*|

Continuation:
G--------|--------|--------|--------|-------|
D--------|--------|--------|--------|-------|
A--------|--------|--------|--------|-------|
E--0--7~-|-5-0--7~|-5-0--7~|-5-0--7~|-3-3--0|

Verse
G--------|-------|-------|-------|-------|
D--------|-------|-------|-------|-------|
A--------|-------|-------|-------|-------|
E--0-0-0-|-0-0-0-|-0-0-0-|-0-0-0-|-3-3--0|

Bridge
G--------|-------|-------|-----------------------------|
D--------|-------|-------|-----------------------------|
A--------|-------|-------|-----------------------------|
E--0-0-0-|-0-0-0-|-0-0-0-|-3-3--2-2--2/5-5--7-7-------|

Pre Chorus:
G------------|
D------------|
A------------|
E--3-3--2--0-|

Chorus
G----------------------------------------------------------|
D----------------------------------------------------------|
A----------------------------------------------------------|
E-2-2--3-3-3-3/7-7-7-7--8-8-8-8-8-8-8-8-7--5-5-5-5-5-5-3--0|

G----------------------|
D----------------------|
A----10---------12-----|
E-8----8--8/10----10--5|

Pre Solo
G-----------------|
D-----------------|
A-----------3--5--|
E--3--5--0--------|

Solo
G-----------------------------------------------------------|
D-----------------------------------------------------------|
A-----------------------------------------------------------|
E-0--0-0-0-0-5-5-0--0-0-0-0-5-5-0--0-0-0-0-5-5-3-3-3-3-3-3-3|

Post Solo
       x3                 x1
G--------|-----|   G--------|-------|
D--------|----*|   D--------|-------|
A--------|----*|   A--------|-------|
E-0-0-4-0|-3-3-|   E-0-0-4-0|-3-2-1-|